  0
SECTION
  2
HEADER
  9
$ACADVER
  1
AC1015
  9
$ACADMAINTVER
 70
     6
  9
$DWGCODEPAGE
  3
ANSI_1252
  9
$INSBASE
 10
0.0
 20
0.0
 30
0.0
  9
$EXTMIN
 10
0.0
 20
0.0
 30
0.0
  9
$EXTMAX
 10
594.0
 20
420.0
 30
0.0
  9
$LIMMIN
 10
0.0
 20
0.0
  9
$LIMMAX
 10
594.0
 20
420.0
  9
$ORTHOMODE
 70
     0
  9
$REGENMODE
 70
     1
  9
$FILLMODE
 70
     1
  9
$QTEXTMODE
 70
     0
  9
$MIRRTEXT
 70
     1
  9
$LTSCALE
 40
1.0
  9
$ATTMODE
 70
     1
  9
$TEXTSIZE
 40
0.2
  9
$TRACEWID
 40
0.05
  9
$TEXTSTYLE
  7
Standard
  9
$CLAYER
  8
0
  9
$CELTYPE
  6
ByLayer
  9
$CECOLOR
 62
   256
  9
$CELTSCALE
 40
25.4
  9
$DISPSILH
 70
     0
  9
$DIMSCALE
 40
1.0
  9
$DIMASZ
 40
0.18
  9
$DIMEXO
 40
0.0625
  9
$DIMDLI
 40
0.38
  9
$DIMRND
 40
0.0
  9
$DIMDLE
 40
0.0
  9
$DIMEXE
 40
0.18
  9
$DIMTP
 40
0.0
  9
$DIMTM
 40
0.0
  9
$DIMTXT
 40
0.18
  9
$DIMCEN
 40
0.09
  9
$DIMTSZ
 40
0.0
  9
$DIMTOL
 70
     0
  9
$DIMLIM
 70
     0
  9
$DIMTIH
 70
     1
  9
$DIMTOH
 70
     1
  9
$DIMSE1
 70
     0
  9
$DIMSE2
 70
     0
  9
$DIMTAD
 70
     0
  9
$DIMZIN
 70
     0
  9
$DIMBLK
  1

  9
$DIMASO
 70
     1
  9
$DIMSHO
 70
     1
  9
$DIMPOST
  1

  9
$DIMAPOST
  1

  9
$DIMALT
 70
     0
  9
$DIMALTD
 70
     2
  9
$DIMALTF
 40
25.4
  9
$DIMLFAC
 40
1.0
  9
$DIMTOFL
 70
     0
  9
$DIMTVP
 40
0.0
  9
$DIMTIX
 70
     0
  9
$DIMSOXD
 70
     0
  9
$DIMSAH
 70
     0
  9
$DIMBLK1
  1

  9
$DIMBLK2
  1

  9
$DIMSTYLE
  2
Standard
  9
$DIMCLRD
 70
     0
  9
$DIMCLRE
 70
     0
  9
$DIMCLRT
 70
     0
  9
$DIMTFAC
 40
1.0
  9
$DIMGAP
 40
0.09
  9
$DIMJUST
 70
     0
  9
$DIMSD1
 70
     0
  9
$DIMSD2
 70
     0
  9
$DIMTOLJ
 70
     1
  9
$DIMTZIN
 70
     0
  9
$DIMALTZ
 70
     0
  9
$DIMALTTZ
 70
     0
  9
$DIMUPT
 70
     0
  9
$DIMDEC
 70
     4
  9
$DIMTDEC
 70
     4
  9
$DIMALTU
 70
     2
  9
$DIMALTTD
 70
     2
  9
$DIMTXSTY
  7
Standard
  9
$DIMAUNIT
 70
     0
  9
$DIMADEC
 70
     0
  9
$DIMALTRND
 40
0.0
  9
$DIMAZIN
 70
     0
  9
$DIMDSEP
 70
    46
  9
$DIMATFIT
 70
     3
  9
$DIMFRAC
 70
     0
  9
$DIMLDRBLK
  1

  9
$DIMLUNIT
 70
     2
  9
$DIMLWD
 70
    -2
  9
$DIMLWE
 70
    -2
  9
$DIMTMOVE
 70
     0
  9
$LUNITS
 70
     2
  9
$LUPREC
 70
     4
  9
$SKETCHINC
 40
0.1
  9
$FILLETRAD
 40
0.5
  9
$AUNITS
 70
     0
  9
$AUPREC
 70
     0
  9
$MENU
  1
.
  9
$ELEVATION
 40
0.0
  9
$PELEVATION
 40
0.0
  9
$THICKNESS
 40
0.0
  9
$LIMCHECK
 70
     0
  9
$CHAMFERA
 40
0.5
  9
$CHAMFERB
 40
0.5
  9
$CHAMFERC
 40
1.0
  9
$CHAMFERD
 40
0.0
  9
$SKPOLY
 70
     0
  9
$TDCREATE
 40
2454903.35817941
  9
$TDUCREATE
 40
2454903.35817941
  9
$TDUPDATE
 40
2454903.358179421
  9
$TDUUPDATE
 40
2454903.358179421
  9
$TDINDWG
 40
0.0000000116
  9
$TDUSRTIMER
 40
0.0000000116
  9
$USRTIMER
 70
     1
  9
$ANGBASE
 50
0.0
  9
$ANGDIR
 70
     0
  9
$PDMODE
 70
     0
  9
$PDSIZE
 40
0.0
  9
$PLINEWID
 40
0.0
  9
$SPLFRAME
 70
     0
  9
$SPLINETYPE
 70
     6
  9
$SPLINESEGS
 70
     8
  9
$HANDSEED
  5
452
  9
$SURFTAB1
 70
     6
  9
$SURFTAB2
 70
     6
  9
$SURFTYPE
 70
     6
  9
$SURFU
 70
     6
  9
$SURFV
 70
     6
  9
$UCSBASE
  2

  9
$UCSNAME
  2

  9
$UCSORG
 10
0.0
 20
0.0
 30
0.0
  9
$UCSXDIR
 10
1.0
 20
0.0
 30
0.0
  9
$UCSYDIR
 10
0.0
 20
1.0
 30
0.0
  9
$UCSORTHOREF
  2

  9
$UCSORTHOVIEW
 70
     0
  9
$UCSORGTOP
 10
0.0
 20
0.0
 30
0.0
  9
$UCSORGBOTTOM
 10
0.0
 20
0.0
 30
0.0
  9
$UCSORGLEFT
 10
0.0
 20
0.0
 30
0.0
  9
$UCSORGRIGHT
 10
0.0
 20
0.0
 30
0.0
  9
$UCSORGFRONT
 10
0.0
 20
0.0
 30
0.0
  9
$UCSORGBACK
 10
0.0
 20
0.0
 30
0.0
  9
$PUCSBASE
  2

  9
$PUCSNAME
  2

  9
$PUCSORG
 10
0.0
 20
0.0
 30
0.0
  9
$PUCSXDIR
 10
1.0
 20
0.0
 30
0.0
  9
$PUCSYDIR
 10
0.0
 20
1.0
 30
0.0
  9
$PUCSORTHOREF
  2

  9
$PUCSORTHOVIEW
 70
     0
  9
$PUCSORGTOP
 10
0.0
 20
0.0
 30
0.0
  9
$PUCSORGBOTTOM
 10
0.0
 20
0.0
 30
0.0
  9
$PUCSORGLEFT
 10
0.0
 20
0.0
 30
0.0
  9
$PUCSORGRIGHT
 10
0.0
 20
0.0
 30
0.0
  9
$PUCSORGFRONT
 10
0.0
 20
0.0
 30
0.0
  9
$PUCSORGBACK
 10
0.0
 20
0.0
 30
0.0
  9
$USERI1
 70
     0
  9
$USERI2
 70
     0
  9
$USERI3
 70
     0
  9
$USERI4
 70
     0
  9
$USERI5
 70
     0
  9
$USERR1
 40
0.0
  9
$USERR2
 40
0.0
  9
$USERR3
 40
0.0
  9
$USERR4
 40
0.0
  9
$USERR5
 40
0.0
  9
$WORLDVIEW
 70
     1
  9
$SHADEDGE
 70
     3
  9
$SHADEDIF
 70
    70
  9
$TILEMODE
 70
     1
  9
$MAXACTVP
 70
    64
  9
$PINSBASE
 10
0.0
 20
0.0
 30
0.0
  9
$PLIMCHECK
 70
     0
  9
$PEXTMIN
 10
0.0
 20
0.0
 30
0.0
  9
$PEXTMAX
 10
594.0
 20
420.0
 30
0.0
  9
$PLIMMIN
 10
0.0
 20
0.0
  9
$PLIMMAX
 10
594.0
 20
420.0
  9
$UNITMODE
 70
     0
  9
$VISRETAIN
 70
     1
  9
$PLINEGEN
 70
     0
  9
$PSLTSCALE
 70
     1
  9
$TREEDEPTH
 70
  3020
  9
$CMLSTYLE
  2
Standard
  9
$CMLJUST
 70
     0
  9
$CMLSCALE
 40
1.0
  9
$PROXYGRAPHICS
 70
     1
  9
$MEASUREMENT
 70
     1
  9
$CELWEIGHT
370
    -1
  9
$ENDCAPS
280
     0
  9
$JOINSTYLE
280
     0
  9
$LWDISPLAY
290
     0
  9
$INSUNITS
 70
     1
  9
$HYPERLINKBASE
  1

  9
$STYLESHEET
  1

  9
$XEDIT
290
     1
  9
$CEPSNTYPE
380
     0
  9
$PSTYLEMODE
290
     1
  9
$FINGERPRINTGUID
  2
{CAC76E1A-1084-4336-9F03-84DD697BF73D}
  9
$VERSIONGUID
  2
{FAEB1C32-E019-11D5-929B-00C0DF256EC4}
  9
$EXTNAMES
290
     1
  9
$PSVPSCALE
 40
0.0
  9
$OLESTARTUP
290
     0
  0
ENDSEC
  0
SECTION
  2
CLASSES
  0
CLASS
  1
ACDBDICTIONARYWDFLT
  2
AcDbDictionaryWithDefault
  3
ObjectDBX Classes
 90
        0
280
     0
281
     0
  0
CLASS
  1
ACDBPLACEHOLDER
  2
AcDbPlaceHolder
  3
ObjectDBX Classes
 90
        0
280
     0
281
     0
  0
CLASS
  1
LAYOUT
  2
AcDbLayout
  3
ObjectDBX Classes
 90
        0
280
     0
281
     0
  0
ENDSEC
  0
SECTION
  2
TABLES
  0
TABLE
  2
VPORT
  5
8
330
0
100
AcDbSymbolTable
 70
     1
  0
VPORT
  5
29
330
8
100
AcDbSymbolTableRecord
100
AcDbViewportTableRecord
  2
*Active
 70
     0
 10
0.0
 20
0.0
 11
1.0
 21
1.0
 12
10.4299065421
 22
4.5
 13
0.0
 23
0.0
 14
0.5
 24
0.5
 15
0.5
 25
0.5
 16
0.0
 26
0.0
 36
1.0
 17
0.0
 27
0.0
 37
0.0
 40
9.0
 41
1.9729729729
 42
50.0
 43
0.0
 44
0.0
 50
0.0
 51
0.0
 71
     0
 72
   100
 73
     1
 74
     3
 75
     0
 76
     0
 77
     0
 78
     0
281
     0
 65
     1
110
0.0
120
0.0
130
0.0
111
1.0
121
0.0
131
0.0
112
0.0
122
1.0
132
0.0
 79
     0
146
0.0
  0
ENDTAB
  0
TABLE
  2
LTYPE
  5
5
330
0
100
AcDbSymbolTable
 70
     3
  0
LTYPE
  5
14
330
5
100
AcDbSymbolTableRecord
100
AcDbLinetypeTableRecord
  2
ByBlock
 70
     0
  3

 72
    65
 73
     0
 40
0.0
  0
LTYPE
  5
15
330
5
100
AcDbSymbolTableRecord
100
AcDbLinetypeTableRecord
  2
ByLayer
 70
     0
  3

 72
    65
 73
     0
 40
0.0
  0
LTYPE
  5
16
330
5
100
AcDbSymbolTableRecord
100
AcDbLinetypeTableRecord
  2
Continuous
 70
     0
  3
Solid line
 72
    65
 73
     0
 40
0.0
  0
LTYPE
  5
81
330
5
100
AcDbSymbolTableRecord
100
AcDbLinetypeTableRecord
  2
CENTER2
 70
     0
  3
___ _ ___ _ ___ _ ___ _ ___ _ ___ _ ___ _ ___ _
 72
    65
 73
     4
 40
1.125
 49
0.75
 74
     4
 75
     0
340
0
 46
0.0
 50
0.0
 44
0.0
 45
0.0
 49
-0.125
 74
     4
 75
     0
340
0
 46
0.0
 50
0.0
 44
0.0
 45
0.0
 49
0.125
 74
     4
 75
     0
340
0
 46
0.0
 50
0.0
 44
0.0
 45
0.0
 49
-0.125
 74
     4
 75
     0
340
0
 46
0.0
 50
0.0
 44
0.0
 45
0.0
  0
LTYPE
  5
EE
330
5
100
AcDbSymbolTableRecord
100
AcDbLinetypeTableRecord
  2
HIDDEN2
 70
     0
  3
_ _ _ _ _ _ _ _ _ _ _ _ _ _ _ _ _ _ _ _ _ _ _ _
 72
    65
 73
     2
 40
0.1875
 49
0.125
 74
     4
 75
     0
340
0
 46
0.0
 50
0.0
 44
0.0
 45
0.0
 49
-0.0625
 74
     4
 75
     0
340
0
 46
0.0
 50
0.0
 44
0.0
 45
0.0
  0
ENDTAB
  0
TABLE
  2
LAYER
  5
2
330
0
100
AcDbSymbolTable
 70
     6
  0
LAYER
  5
10
330
2
100
AcDbSymbolTableRecord
100
AcDbLayerTableRecord
  2
0
 70
     0
 62
     7
  6
Continuous
370
    -3
390
F
  0
LAYER
  5
2A
330
2
100
AcDbSymbolTableRecord
100
AcDbLayerTableRecord
  2
Default
 70
     0
 62
     7
  6
Continuous
370
    -3
390
F
  0
LAYER
  5
67
330
2
100
AcDbSymbolTableRecord
100
AcDbLayerTableRecord
  2
DV1_Default
 70
     0
 62
     7
  6
Continuous
370
    -3
390
F
  0
LAYER
  5
15E
330
2
100
AcDbSymbolTableRecord
100
AcDbLayerTableRecord
  2
DV2_Default
 70
     0
 62
     7
  6
Continuous
370
    -3
390
F
  0
LAYER
  5
222
330
2
100
AcDbSymbolTableRecord
100
AcDbLayerTableRecord
  2
DV3_Default
 70
     0
 62
     7
  6
Continuous
370
    -3
390
F
  0
LAYER
  5
441
330
2
100
AcDbSymbolTableRecord
100
AcDbLayerTableRecord
  2
BORDER
 70
     0
 62
     7
  6
Continuous
370
    -3
390
F
  0
ENDTAB
  0
TABLE
  2
STYLE
  5
3
330
0
100
AcDbSymbolTable
 70
     3
  0
STYLE
  5
11
330
3
100
AcDbSymbolTableRecord
100
AcDbTextStyleTableRecord
  2
Standard
 70
     0
 40
0.0
 41
1.0
 50
0.0
 71
     0
 42
0.2
  3
txt
  4

  0
STYLE
  5
31
330
3
100
AcDbSymbolTableRecord
100
AcDbTextStyleTableRecord
  2
SEACAD_arial_ttf
 70
     0
 40
0.2
 41
1.0
 50
0.0
 71
     0
 42
0.2
  3
arial.ttf
  4

  0
STYLE
  5
45
330
3
100
AcDbSymbolTableRecord
100
AcDbTextStyleTableRecord
  2
SEACAD_semeca1_ttf
 70
     0
 40
0.2
 41
1.0
 50
0.0
 71
     0
 42
0.2
  3
semeca1.ttf
  4

  0
ENDTAB
  0
TABLE
  2
VIEW
  5
6
330
0
100
AcDbSymbolTable
 70
     0
  0
ENDTAB
  0
TABLE
  2
UCS
  5
7
330
0
100
AcDbSymbolTable
 70
     0
  0
ENDTAB
  0
TABLE
  2
APPID
  5
9
330
0
100
AcDbSymbolTable
 70
     1
  0
APPID
  5
12
330
9
100
AcDbSymbolTableRecord
100
AcDbRegAppTableRecord
  2
ACAD
 70
     0
  0
ENDTAB
  0
TABLE
  2
DIMSTYLE
  5
A
330
0
100
AcDbSymbolTable
 70
     1
100
AcDbDimStyleTable
  0
DIMSTYLE
105
27
330
A
100
AcDbSymbolTableRecord
100
AcDbDimStyleTableRecord
  2
Standard
 70
     0
340
11
  0
ENDTAB
  0
TABLE
  2
BLOCK_RECORD
  5
1
330
0
100
AcDbSymbolTable
 70
    42
  0
BLOCK_RECORD
  5
1F
330
1
100
AcDbSymbolTableRecord
100
AcDbBlockTableRecord
  2
*Model_Space
340
22
  0
BLOCK_RECORD
  5
1B
330
1
100
AcDbSymbolTableRecord
100
AcDbBlockTableRecord
  2
*Paper_Space
340
1E
  0
BLOCK_RECORD
  5
2B
330
1
100
AcDbSymbolTableRecord
100
AcDbBlockTableRecord
  2
SEANNOT_GROUP
340
0
102
{BLKREFS
331
2C
102
}
  0
BLOCK_RECORD
  5
35
330
1
100
AcDbSymbolTableRecord
100
AcDbBlockTableRecord
  2
SEANNOT_GROUP1
340
0
102
{BLKREFS
331
36
102
}
  0
BLOCK_RECORD
  5
3F
330
1
100
AcDbSymbolTableRecord
100
AcDbBlockTableRecord
  2
SEANNOT_GROUP2
340
0
102
{BLKREFS
331
40
102
}
  0
BLOCK_RECORD
  5
4A
330
1
100
AcDbSymbolTableRecord
100
AcDbBlockTableRecord
  2
SEANNOT_GROUP3
340
0
102
{BLKREFS
331
4B
102
}
  0
BLOCK_RECORD
  5
53
330
1
100
AcDbSymbolTableRecord
100
AcDbBlockTableRecord
  2
SEANNOT_GROUP4
340
0
102
{BLKREFS
331
54
102
}
  0
BLOCK_RECORD
  5
5C
330
1
100
AcDbSymbolTableRecord
100
AcDbBlockTableRecord
  2
SEANNOT_GROUP5
340
0
102
{BLKREFS
331
5D
102
}
  0
BLOCK_RECORD
  5
65
330
1
100
AcDbSymbolTableRecord
100
AcDbBlockTableRecord
  2
SE
340
0
102
{BLKREFS
331
66
102
}
  0
BLOCK_RECORD
  5
15C
330
1
100
AcDbSymbolTableRecord
100
AcDbBlockTableRecord
  2
SE1
340
0
102
{BLKREFS
331
15D
102
}
  0
BLOCK_RECORD
  5
220
330
1
100
AcDbSymbolTableRecord
100
AcDbBlockTableRecord
  2
SE2
340
0
102
{BLKREFS
331
221
102
}
  0
BLOCK_RECORD
  5
2BA
330
1
100
AcDbSymbolTableRecord
100
AcDbBlockTableRecord
  2
GDimGGroup
340
0
102
{BLKREFS
331
2BB
102
}
  0
BLOCK_RECORD
  5
2C6
330
1
100
AcDbSymbolTableRecord
100
AcDbBlockTableRecord
  2
GDimGGroup1
340
0
102
{BLKREFS
331
2C7
102
}
  0
BLOCK_RECORD
  5
2D2
330
1
100
AcDbSymbolTableRecord
100
AcDbBlockTableRecord
  2
GDimGGroup2
340
0
102
{BLKREFS
331
2D3
102
}
  0
BLOCK_RECORD
  5
2DE
330
1
100
AcDbSymbolTableRecord
100
AcDbBlockTableRecord
  2
GDimGGroup3
340
0
102
{BLKREFS
331
2DF
102
}
  0
BLOCK_RECORD
  5
2E9
330
1
100
AcDbSymbolTableRecord
100
AcDbBlockTableRecord
  2
GDimGGroup4
340
0
102
{BLKREFS
331
2EA
102
}
  0
BLOCK_RECORD
  5
2F5
330
1
100
AcDbSymbolTableRecord
100
AcDbBlockTableRecord
  2
GDimGGroup5
340
0
102
{BLKREFS
331
2F6
102
}
  0
BLOCK_RECORD
  5
301
330
1
100
AcDbSymbolTableRecord
100
AcDbBlockTableRecord
  2
GDimGGroup6
340
0
102
{BLKREFS
331
302
102
}
  0
BLOCK_RECORD
  5
30E
330
1
100
AcDbSymbolTableRecord
100
AcDbBlockTableRecord
  2
GDimGGroup7
340
0
102
{BLKREFS
331
30F
102
}
  0
BLOCK_RECORD
  5
31B
330
1
100
AcDbSymbolTableRecord
100
AcDbBlockTableRecord
  2
GDimGGroup8
340
0
102
{BLKREFS
331
31C
102
}
  0
BLOCK_RECORD
  5
328
330
1
100
AcDbSymbolTableRecord
100
AcDbBlockTableRecord
  2
GDimGGroup9
340
0
102
{BLKREFS
331
329
102
}
  0
BLOCK_RECORD
  5
334
330
1
100
AcDbSymbolTableRecord
100
AcDbBlockTableRecord
  2
GDimGGroup10
340
0
102
{BLKREFS
331
335
102
}
  0
BLOCK_RECORD
  5
340
330
1
100
AcDbSymbolTableRecord
100
AcDbBlockTableRecord
  2
GDimGGroup11
340
0
102
{BLKREFS
331
341
102
}
  0
BLOCK_RECORD
  5
34C
330
1
100
AcDbSymbolTableRecord
100
AcDbBlockTableRecord
  2
GDimGGroup12
340
0
102
{BLKREFS
331
34D
102
}
  0
BLOCK_RECORD
  5
358
330
1
100
AcDbSymbolTableRecord
100
AcDbBlockTableRecord
  2
GDimGGroup13
340
0
102
{BLKREFS
331
359
102
}
  0
BLOCK_RECORD
  5
366
330
1
100
AcDbSymbolTableRecord
100
AcDbBlockTableRecord
  2
GDimGGroup14
340
0
102
{BLKREFS
331
367
102
}
  0
BLOCK_RECORD
  5
373
330
1
100
AcDbSymbolTableRecord
100
AcDbBlockTableRecord
  2
GDimGGroup15
340
0
102
{BLKREFS
331
374
102
}
  0
BLOCK_RECORD
  5
381
330
1
100
AcDbSymbolTableRecord
100
AcDbBlockTableRecord
  2
GDimGGroup16
340
0
102
{BLKREFS
331
382
102
}
  0
BLOCK_RECORD
  5
38F
330
1
100
AcDbSymbolTableRecord
100
AcDbBlockTableRecord
  2
GDimGGroup17
340
0
102
{BLKREFS
331
390
102
}
  0
BLOCK_RECORD
  5
39A
330
1
100
AcDbSymbolTableRecord
100
AcDbBlockTableRecord
  2
GDimGGroup18
340
0
102
{BLKREFS
331
39B
102
}
  0
BLOCK_RECORD
  5
3A7
330
1
100
AcDbSymbolTableRecord
100
AcDbBlockTableRecord
  2
GDimGGroup19
340
0
102
{BLKREFS
331
3A8
102
}
  0
BLOCK_RECORD
  5
3B4
330
1
100
AcDbSymbolTableRecord
100
AcDbBlockTableRecord
  2
GDimGGroup20
340
0
102
{BLKREFS
331
3B5
102
}
  0
BLOCK_RECORD
  5
3BF
330
1
100
AcDbSymbolTableRecord
100
AcDbBlockTableRecord
  2
GDimGGroup21
340
0
102
{BLKREFS
331
3C0
102
}
  0
BLOCK_RECORD
  5
3CB
330
1
100
AcDbSymbolTableRecord
100
AcDbBlockTableRecord
  2
GDimGGroup22
340
0
102
{BLKREFS
331
3CC
102
}
  0
BLOCK_RECORD
  5
3D5
330
1
100
AcDbSymbolTableRecord
100
AcDbBlockTableRecord
  2
GDimGGroup23
340
0
102
{BLKREFS
331
3D6
102
}
  0
BLOCK_RECORD
  5
3E1
330
1
100
AcDbSymbolTableRecord
100
AcDbBlockTableRecord
  2
GDimGGroup24
340
0
102
{BLKREFS
331
3E2
102
}
  0
BLOCK_RECORD
  5
3EF
330
1
100
AcDbSymbolTableRecord
100
AcDbBlockTableRecord
  2
GDimGGroup25
340
0
102
{BLKREFS
331
3F0
102
}
  0
BLOCK_RECORD
  5
3FB
330
1
100
AcDbSymbolTableRecord
100
AcDbBlockTableRecord
  2
GDimGGroup26
340
0
102
{BLKREFS
331
3FC
102
}
  0
BLOCK_RECORD
  5
407
330
1
100
AcDbSymbolTableRecord
100
AcDbBlockTableRecord
  2
GDimGGroup27
340
0
102
{BLKREFS
331
408
102
}
  0
BLOCK_RECORD
  5
413
330
1
100
AcDbSymbolTableRecord
100
AcDbBlockTableRecord
  2
GDimGGroup28
340
0
102
{BLKREFS
331
414
102
}
  0
BLOCK_RECORD
  5
41F
330
1
100
AcDbSymbolTableRecord
100
AcDbBlockTableRecord
  2
GDimGGroup29
340
0
102
{BLKREFS
331
420
102
}
  0
BLOCK_RECORD
  5
42B
330
1
100
AcDbSymbolTableRecord
100
AcDbBlockTableRecord
  2
GDimGGroup30
340
0
102
{BLKREFS
331
42C
102
}
  0
BLOCK_RECORD
  5
437
330
1
100
AcDbSymbolTableRecord
100
AcDbBlockTableRecord
  2
GDimGGroup31
340
0
102
{BLKREFS
331
438
102
}
  0
ENDTAB
  0
ENDSEC
  0
SECTION
  2
BLOCKS
  0
BLOCK
  5
20
330
1F
100
AcDbEntity
  8
0
100
AcDbBlockBegin
  2
*Model_Space
 70
     0
 71
     0
 10
0.0
 20
0.0
 30
0.0
  3
*Model_Space
  1

  0
ENDBLK
  5
21
330
1F
100
AcDbEntity
  8
0
100
AcDbBlockEnd
  0
BLOCK
  5
1C
330
1B
100
AcDbEntity
 67
     1
  8
0
100
AcDbBlockBegin
  2
*Paper_Space
 70
     0
 71
     0
 10
0.0
 20
0.0
 30
0.0
  3
*Paper_Space
  1

  0
ENDBLK
  5
1D
330
1B
100
AcDbEntity
 67
     1
  8
0
100
AcDbBlockEnd
  0
BLOCK
  5
33
330
2B
100
AcDbEntity
  8
0
100
AcDbBlockBegin
  2
SEANNOT_GROUP
 70
     0
 71
     0
 10
0.0
 20
0.0
 30
0.0
  3
SEANNOT_GROUP
  1

  0
LWPOLYLINE
  5
2D
330
2B
100
AcDbEntity
  8
Default
  6
Continuous
 62
     7
 48
25.4
100
AcDbPolyline
 90
        2
 70
     0
 43
0.0
 10
104.1397708627
 20
229.4789341813
 10
125.4641097853
 20
248.4931615636
  0
HATCH
  5
2E
330
2B
100
AcDbEntity
  8
Default
  6
Continuous
 62
     7
 48
25.4
100
AcDbHatch
 10
0.0
 20
0.0
 30
0.0
210
0.0
220
0.0
230
1.0
  2
SOLID
 70
     1
 71
     0
 91
        1
 92
        1
 93
        3
 72
     1
 10
122.9222768204038
 20
245.3334889247029
 11
125.4641097853347
 21
248.4931615635966
 72
     1
 10
125.4641097853347
 20
248.4931615635966
 11
122.0349145031913
 21
246.3286602992153
 72
     1
 10
122.0349145031913
 20
246.3286602992153
 11
122.9222768204038
 21
245.3334889247029
 97
        0
 75
     0
 76
     1
 98
        0
  0
LWPOLYLINE
  5
2F
330
2B
100
AcDbEntity
  8
Default
  6
Continuous
 62
     7
 48
25.4
370
    20
100
AcDbPolyline
 90
        4
 70
     1
 43
0.00025
 10
122.9222768204
 20
245.3334889247
 10
125.4641097853
 20
248.4931615636
 10
122.0349145032
 20
246.3286602992
 10
122.9222768204
 20
245.3334889247
  0
LINE
  5
30
330
2B
100
AcDbEntity
  8
Default
  6
Continuous
 62
     7
 48
25.4
100
AcDbLine
 10
104.1397708627
 20
229.4789341813
 30
0.0
 11
86.1165916212
 21
229.4789341813
 31
0.0
  0
TEXT
  5
32
330
2B
100
AcDbEntity
  8
Default
  6
Continuous
 62
     7
 48
25.4
100
AcDbText
 10
86.1165916212
 20
230.4789341813
 30
0.0
 40
4.0
  1
6-M12
  7
SEACAD_arial_ttf
 11
86.1165916212
 21
234.4789341813
 31
0.0
100
AcDbText
 73
     3
  0
ENDBLK
  5
34
330
2B
100
AcDbEntity
  8
0
100
AcDbBlockEnd
  0
BLOCK
  5
3D
330
35
100
AcDbEntity
  8
0
100
AcDbBlockBegin
  2
SEANNOT_GROUP1
 70
     0
 71
     0
 10
0.0
 20
0.0
 30
0.0
  3
SEANNOT_GROUP1
  1

  0
LWPOLYLINE
  5
37
330
35
100
AcDbEntity
  8
Default
  6
Continuous
 62
     7
 48
25.4
100
AcDbPolyline
 90
        2
 70
     0
 43
0.0
 10
254.4193398568
 20
398.2739840148
 10
220.6311812871
 20
382.3002721624
  0
HATCH
  5
38
330
35
100
AcDbEntity
  8
Default
  6
Continuous
 62
     7
 48
25.4
100
AcDbHatch
 10
0.0
 20
0.0
 30
0.0
210
0.0
220
0.0
230
1.0
  2
SOLID
 70
     1
 71
     0
 91
        1
 92
        1
 93
        3
 72
     1
 10
223.9624876842483
 20
384.6125964681265
 11
220.6311812871032
 21
382.3002721623848
 72
     1
 10
220.6311812871032
 20
382.3002721623848
 11
224.5323600862647
 21
383.407182268742
 72
     1
 10
224.5323600862647
 20
383.407182268742
 11
223.9624876842483
 21
384.6125964681264
 97
        0
 75
     0
 76
     1
 98
        0
  0
LWPOLYLINE
  5
39
330
35
100
AcDbEntity
  8
Default
  6
Continuous
 62
     7
 48
25.4
370
    20
100
AcDbPolyline
 90
        4
 70
     1
 43
0.00025
 10
223.9624876842
 20
384.6125964681
 10
220.6311812871
 20
382.3002721624
 10
224.5323600863
 20
383.4071822687
 10
223.9624876842
 20
384.6125964681
  0
LINE
  5
3A
330
35
100
AcDbEntity
  8
Default
  6
Continuous
 62
     7
 48
25.4
100
AcDbLine
 10
254.4193398568
 20
398.2739840148
 30
0.0
 11
326.2599195669
 21
398.2739840148
 31
0.0
  0
TEXT
  5
3B
330
35
100
AcDbEntity
  8
Default
  6
Continuous
 62
     7
 48
25.4
100
AcDbText
 10
254.4193398568
 20
399.2739840148
 30
0.0
 40
4.0
  1
SERRATION PITCH 1.5X60
  7
SEACAD_arial_ttf
 11
254.4193398568
 21
403.2739840148
 31
0.0
100
AcDbText
 73
     3
  0
TEXT
  5
3C
330
35
100
AcDbEntity
  8
Default
  6
Continuous
 62
     7
 48
25.4
100
AcDbText
 10
324.5932529002
 20
399.2739840148
 30
0.0
 40
4.0
  1
°
  7
SEACAD_arial_ttf
 11
324.5932529002
 21
403.2739840148
 31
0.0
100
AcDbText
 73
     3
  0
ENDBLK
  5
3E
330
35
100
AcDbEntity
  8
0
100
AcDbBlockEnd
  0
BLOCK
  5
48
330
3F
100
AcDbEntity
  8
0
100
AcDbBlockBegin
  2
SEANNOT_GROUP2
 70
     0
 71
     0
 10
0.0
 20
0.0
 30
0.0
  3
SEANNOT_GROUP2
  1

  0
LWPOLYLINE
  5
41
330
3F
100
AcDbEntity
  8
Default
  6
Continuous
 62
     7
 48
25.4
100
AcDbPolyline
 90
        2
 70
     0
 43
0.0
 10
246.6731073739
 20
265.2931028356
 10
246.6731073739
 20
239.4772219931
  0
HATCH
  5
42
330
3F
100
AcDbEntity
  8
Default
  6
Continuous
 62
     7
 48
25.4
100
AcDbHatch
 10
0.0
 20
0.0
 30
0.0
210
0.0
220
0.0
230
1.0
  2
SOLID
 70
     1
 71
     0
 91
        1
 92
        1
 93
        3
 72
     1
 10
246.0064406755959
 20
243.4772221831173
 11
246.6731073739276
 21
239.4772219931275
 72
     1
 10
246.6731073739276
 20
239.4772219931275
 11
247.3397740722592
 21
243.4772221831173
 72
     1
 10
247.3397740722592
 20
243.4772221831173
 11
246.0064406755959
 21
243.4772221831173
 97
        0
 75
     0
 76
     1
 98
        0
  0
LWPOLYLINE
  5
43
330
3F
100
AcDbEntity
  8
Default
  6
Continuous
 62
     7
 48
25.4
370
    20
100
AcDbPolyline
 90
        4
 70
     1
 43
0.00025
 10
246.0064406756
 20
243.4772221831
 10
246.6731073739
 20
239.4772219931
 10
247.3397740723
 20
243.4772221831
 10
246.0064406756
 20
243.4772221831
  0
LINE
  5
44
330
3F
100
AcDbEntity
  8
Default
  6
Continuous
 62
     7
 48
25.4
100
AcDbLine
 10
225.6833234388
 20
239.4772219931
 30
0.0
 11
248.6731073739
 21
239.4772219931
 31
0.0
  0
TEXT
  5
46
330
3F
100
AcDbEntity
  8
Default
  6
Continuous
 62
     7
 48
25.4
100
AcDbText
 10
248.0731073739
 20
263.2931028356
 30
0.0
 40
4.0
  1
O
  7
SEACAD_semeca1_ttf
 11
248.0731073739
 21
267.2931028356
 31
0.0
100
AcDbText
 73
     3
  0
TEXT
  5
47
330
3F
100
AcDbEntity
  8
Default
  6
Continuous
 62
     7
 48
25.4
100
AcDbText
 10
252.6345108827
 20
263.2931028356
 30
0.0
 40
4.0
  1
171.4
  7
SEACAD_arial_ttf
 11
252.6345108827
 21
267.2931028356
 31
0.0
100
AcDbText
 73
     3
  0
ENDBLK
  5
49
330
3F
100
AcDbEntity
  8
0
100
AcDbBlockEnd
  0
BLOCK
  5
51
330
4A
100
AcDbEntity
  8
0
100
AcDbBlockBegin
  2
SEANNOT_GROUP3
 70
     0
 71
     0
 10
0.0
 20
0.0
 30
0.0
  3
SEANNOT_GROUP3
  1

  0
LWPOLYLINE
  5
4C
330
4A
100
AcDbEntity
  8
Default
  6
Continuous
 62
     7
 48
25.4
100
AcDbPolyline
 90
        2
 70
     0
 43
0.0
 10
177.3805327445
 20
371.326027018
 10
163.3767285975
 20
331.0250121638
  0
HATCH
  5
4D
330
4A
100
AcDbEntity
  8
Default
  6
Continuous
 62
     7
 48
25.4
100
AcDbHatch
 10
0.0
 20
0.0
 30
0.0
210
0.0
220
0.0
230
1.0
  2
SOLID
 70
     1
 71
     0
 91
        1
 92
        1
 93
        3
 72
     1
 10
164.0599130826821
 20
335.0222243130193
 11
163.3767285975444
 21
331.0250121638021
 72
     1
 10
163.3767285975444
 20
331.0250121638021
 11
165.3193773210695
 21
334.5845854449089
 72
     1
 10
165.3193773210695
 20
334.5845854449089
 11
164.0599130826821
 21
335.0222243130193
 97
        0
 75
     0
 76
     1
 98
        0
  0
LWPOLYLINE
  5
4E
330
4A
100
AcDbEntity
  8
Default
  6
Continuous
 62
     7
 48
25.4
370
    20
100
AcDbPolyline
 90
        4
 70
     1
 43
0.00025
 10
164.0599130827
 20
335.022224313
 10
163.3767285975
 20
331.0250121638
 10
165.3193773211
 20
334.5845854449
 10
164.0599130827
 20
335.022224313
  0
LINE
  5
4F
330
4A
100
AcDbEntity
  8
Default
  6
Continuous
 62
     7
 48
25.4
100
AcDbLine
 10
177.3805327445
 20
371.326027018
 30
0.0
 11
213.1196631793
 21
371.326027018
 31
0.0
  0
TEXT
  5
50
330
4A
100
AcDbEntity
  8
Default
  6
Continuous
 62
     7
 48
25.4
100
AcDbText
 10
177.3805327445
 20
372.326027018
 30
0.0
 40
4.0
  1
MAX M90X2.0
  7
SEACAD_arial_ttf
 11
177.3805327445
 21
376.326027018
 31
0.0
100
AcDbText
 73
     3
  0
ENDBLK
  5
52
330
4A
100
AcDbEntity
  8
0
100
AcDbBlockEnd
  0
BLOCK
  5
5A
330
53
100
AcDbEntity
  8
0
100
AcDbBlockBegin
  2
SEANNOT_GROUP4
 70
     0
 71
     0
 10
0.0
 20
0.0
 30
0.0
  3
SEANNOT_GROUP4
  1

  0
LWPOLYLINE
  5
55
330
53
100
AcDbEntity
  8
Default
  6
Continuous
 62
     7
 48
25.4
100
AcDbPolyline
 90
        2
 70
     0
 43
0.0
 10
102.3692138731
 20
202.7397532923
 10
140.5795367826
 20
233.8772244287
  0
HATCH
  5
56
330
53
100
AcDbEntity
  8
Default
  6
Continuous
 62
     7
 48
25.4
100
AcDbHatch
 10
0.0
 20
0.0
 30
0.0
210
0.0
220
0.0
230
1.0
  2
SOLID
 70
     1
 71
     0
 91
        1
 92
        1
 93
        3
 72
     1
 10
137.8998620328153
 20
230.8335770703361
 11
140.5795367825995
 21
233.8772244286796
 72
     1
 10
140.5795367825995
 20
233.8772244286797
 11
137.0575804436111
 21
231.8671822517982
 72
     1
 10
137.0575804436111
 20
231.8671822517982
 11
137.8998620328153
 21
230.8335770703361
 97
        0
 75
     0
 76
     1
 98
        0
  0
LWPOLYLINE
  5
57
330
53
100
AcDbEntity
  8
Default
  6
Continuous
 62
     7
 48
25.4
370
    20
100
AcDbPolyline
 90
        4
 70
     1
 43
0.00025
 10
137.8998620328
 20
230.8335770703
 10
140.5795367826
 20
233.8772244287
 10
137.0575804436
 20
231.8671822518
 10
137.8998620328
 20
230.8335770703
  0
LINE
  5
58
330
53
100
AcDbEntity
  8
Default
  6
Continuous
 62
     7
 48
25.4
100
AcDbLine
 10
102.3692138731
 20
202.7397532923
 30
0.0
 11
86.5431269166
 21
202.7397532923
 31
0.0
  0
TEXT
  5
59
330
53
100
AcDbEntity
  8
Default
  6
Continuous
 62
     7
 48
25.4
100
AcDbText
 10
86.5431269166
 20
203.7397532923
 30
0.0
 40
4.0
  1
3-M16
  7
SEACAD_arial_ttf
 11
86.5431269166
 21
207.7397532923
 31
0.0
100
AcDbText
 73
     3
  0
ENDBLK
  5
5B
330
53
100
AcDbEntity
  8
0
100
AcDbBlockEnd
  0
BLOCK
  5
63
330
5C
100
AcDbEntity
  8
0
100
AcDbBlockBegin
  2
SEANNOT_GROUP5
 70
     0
 71
     0
 10
0.0
 20
0.0
 30
0.0
  3
SEANNOT_GROUP5
  1

  0
LWPOLYLINE
  5
5E
330
5C
100
AcDbEntity
  8
Default
  6
Continuous
 62
     7
 48
25.4
100
AcDbPolyline
 90
        2
 70
     0
 43
0.0
 10
370.013378181
 20
340.5898211226
 10
412.3540069936
 20
308.9929871328
  0
HATCH
  5
5F
330
5C
100
AcDbEntity
  8
Default
  6
Continuous
 62
     7
 48
25.4
100
AcDbHatch
 10
0.0
 20
0.0
 30
0.0
210
0.0
220
0.0
230
1.0
  2
SOLID
 70
     1
 71
     0
 91
        1
 92
        1
 93
        3
 72
     1
 10
408.7495331009007
 20
310.8510005781338
 11
412.3540069936359
 21
308.9929871327645
 72
     1
 10
412.3540069936359
 20
308.9929871327645
 11
409.5469684827899
 21
311.9195859787306
 72
     1
 10
409.5469684827899
 20
311.9195859787306
 11
408.7495331009006
 21
310.8510005781338
 97
        0
 75
     0
 76
     1
 98
        0
  0
LWPOLYLINE
  5
60
330
5C
100
AcDbEntity
  8
Default
  6
Continuous
 62
     7
 48
25.4
370
    20
100
AcDbPolyline
 90
        4
 70
     1
 43
0.00025
 10
408.7495331009
 20
310.8510005781
 10
412.3540069936
 20
308.9929871328
 10
409.5469684828
 20
311.9195859787
 10
408.7495331009
 20
310.8510005781
  0
LINE
  5
61
330
5C
100
AcDbEntity
  8
Default
  6
Continuous
 62
     7
 48
25.4
100
AcDbLine
 10
370.013378181
 20
340.5898211226
 30
0.0
 11
357.3177260071
 21
340.5898211226
 31
0.0
  0
TEXT
  5
62
330
5C
100
AcDbEntity
  8
Default
  6
Continuous
 62
     7
 48
25.4
100
AcDbText
 10
357.3177260071
 20
341.5898211226
 30
0.0
 40
4.0
  1
3-M8
  7
SEACAD_arial_ttf
 11
357.3177260071
 21
345.5898211226
 31
0.0
100
AcDbText
 73
     3
  0
ENDBLK
  5
64
330
5C
100
AcDbEntity
  8
0
100
AcDbBlockEnd
  0
BLOCK
  5
15A
330
65
100
AcDbEntity
  8
0
100
AcDbBlockBegin
  2
SE
 70
     0
 71
     0
 10
0.0
 20
0.0
 30
0.0
  3
SE
  1

  0
LINE
  5
68
330
65
100
AcDbEntity
  8
DV1_Default
  6
Continuous
 62
     7
 48
25.4
100
AcDbLine
 10
188.7811812871
 20
388.3672219931
 30
0.0
 11
150.8411812871
 21
388.3672219931
 31
0.0
  0
LINE
  5
69
330
65
100
AcDbEntity
  8
DV1_Default
  6
Continuous
 62
     7
 48
25.4
100
AcDbLine
 10
218.0411812871
 20
210.5672219931
 30
0.0
 11
150.8411812871
 21
210.5672219931
 31
0.0
  0
LINE
  5
6A
330
65
100
AcDbEntity
  8
DV1_Default
  6
Continuous
 62
     7
 48
25.4
100
AcDbLine
 10
149.4411812871
 20
211.9672219931
 30
0.0
 11
149.4411812871
 21
222.4672219931
 31
0.0
  0
LINE
  5
6B
330
65
100
AcDbEntity
  8
DV1_Default
  6
Continuous
 62
     7
 48
25.4
100
AcDbLine
 10
152.9459023825
 20
299.4672219931
 30
0.0
 11
152.9459023825
 21
375.7672219931
 31
0.0
  0
LINE
  5
6C
330
65
100
AcDbEntity
  8
DV1_Default
  6
Continuous
 62
     7
 48
25.4
100
AcDbLine
 10
152.2459023825
 20
376.4672219931
 30
0.0
 11
135.7959023825
 21
376.4672219931
 31
0.0
  0
LINE
  5
6D
330
65
100
AcDbEntity
  8
DV1_Default
  6
Continuous
 62
     7
 48
25.4
100
AcDbLine
 10
135.4459023825
 20
376.1172219931
 30
0.0
 11
135.4459023825
 21
256.8931615636
 31
0.0
  0
LINE
  5
6E
330
65
100
AcDbEntity
  8
DV1_Default
  6
Continuous
 62
     7
 48
25.4
100
AcDbLine
 10
135.7959023825
 20
222.4672219931
 30
0.0
 11
152.2459023825
 21
222.4672219931
 31
0.0
  0
LINE
  5
6F
330
65
100
AcDbEntity
  8
DV1_Default
  6
Continuous
 62
     7
 48
25.4
100
AcDbLine
 10
152.9459023825
 20
245.4272195576
 30
0.0
 11
152.9459023825
 21
299.4672219931
 31
0.0
  0
LINE
  5
70
330
65
100
AcDbEntity
  8
DV1_Default
  6
Continuous
 62
     7
 48
25.4
100
AcDbLine
 10
149.4411812871
 20
376.4672219931
 30
0.0
 11
149.4411812871
 21
386.9672219931
 31
0.0
  0
LINE
  5
71
330
65
100
AcDbEntity
  8
DV1_Default
  6
Continuous
 62
     7
 48
25.4
100
AcDbLine
 10
135.4459023825
 20
336.6984719931
 30
0.0
 11
149.4459023825
 21
334.9794881405
 31
0.0
  0
LINE
  5
72
330
65
100
AcDbEntity
  8
DV1_Default
  6
Continuous
 62
     7
 48
25.4
100
AcDbLine
 10
149.4459023825
 20
334.9794881405
 30
0.0
 11
152.9459023825
 21
334.9794881405
 31
0.0
  0
LINE
  5
73
330
65
100
AcDbEntity
  8
DV1_Default
  6
Continuous
 62
     7
 48
25.4
100
AcDbLine
 10
135.4459023825
 20
262.2359719931
 30
0.0
 11
149.4459023825
 21
263.9549558458
 31
0.0
  0
LINE
  5
74
330
65
100
AcDbEntity
  8
DV1_Default
  6
Continuous
 62
     7
 48
25.4
100
AcDbLine
 10
149.4459023825
 20
263.9549558458
 30
0.0
 11
152.9459023825
 21
263.9549558458
 31
0.0
  0
LINE
  5
75
330
65
100
AcDbEntity
  8
DV1_Default
  6
Continuous
 62
     7
 48
25.4
100
AcDbLine
 10
149.4459023825
 20
334.9794881405
 30
0.0
 11
149.4459023825
 21
263.9549558458
 31
0.0
  0
LINE
  5
76
330
65
100
AcDbEntity
  8
DV1_Default
  6
Continuous
 62
     7
 48
25.4
100
AcDbLine
 10
165.545054269
 20
333.4750121638
 30
0.0
 11
165.545054269
 21
348.2632841925
 31
0.0
  0
LINE
  5
77
330
65
100
AcDbEntity
  8
DV1_Default
  6
Continuous
 62
     7
 48
25.4
100
AcDbLine
 10
171.4959023825
 20
265.5172219931
 30
0.0
 11
171.4959023825
 21
263.7672219931
 31
0.0
  0
LINE
  5
78
330
65
100
AcDbEntity
  8
DV1_Default
  6
Continuous
 62
     7
 48
25.4
100
AcDbLine
 10
171.4959023825
 20
263.7672219931
 30
0.0
 11
178.0269912957
 21
265.5172219931
 31
0.0
  0
LINE
  5
79
330
65
100
AcDbEntity
  8
DV1_Default
  6
Continuous
 62
     7
 48
25.4
100
AcDbLine
 10
158.8959023825
 20
267.9672219931
 30
0.0
 11
173.5959023825
 21
267.9672219931
 31
0.0
  0
LINE
  5
7A
330
65
100
AcDbEntity
  8
DV1_Default
  6
Continuous
 62
     7
 48
25.4
100
AcDbLine
 10
158.8959023825
 20
268.6672219931
 30
0.0
 11
173.5959023825
 21
268.6672219931
 31
0.0
  0
LINE
  5
7B
330
65
100
AcDbEntity
  8
DV1_Default
  6
Continuous
 62
     7
 48
25.4
100
AcDbLine
 10
158.8959023825
 20
283.7172219931
 30
0.0
 11
173.5959023825
 21
283.7172219931
 31
0.0
  0
LINE
  5
7C
330
65
100
AcDbEntity
  8
DV1_Default
  6
Continuous
 62
     7
 48
25.4
100
AcDbLine
 10
218.3911812871
 20
271.1172219931
 30
0.0
 11
182.4903074166
 21
271.1172219931
 31
0.0
  0
LINE
  5
7D
330
65
100
AcDbEntity
  8
DV1_Default
  6
Continuous
 62
     7
 48
25.4
100
AcDbLine
 10
181.5269912957
 20
270.1539058722
 30
0.0
 11
182.4903074166
 21
271.1172219931
 31
0.0
  0
LINE
  5
7E
330
65
100
AcDbEntity
  8
DV1_Default
  6
Continuous
 62
     7
 48
25.4
100
AcDbLine
 10
178.699768859
 20
269.7362506954
 30
0.0
 11
178.699768859
 21
271.1254152284
 31
0.0
  0
LINE
  5
7F
330
65
100
AcDbEntity
  8
DV1_Default
  6
Continuous
 62
     7
 48
25.4
100
AcDbLine
 10
176.3959023825
 20
271.1254021161
 30
0.0
 11
180.4769912957
 21
271.1254021161
 31
0.0
  0
LINE
  5
80
330
65
100
AcDbEntity
  8
DV1_Default
  6
Continuous
 62
     7
 48
25.4
100
AcDbLine
 10
165.545054269
 20
265.5172219931
 30
0.0
 11
165.545054269
 21
252.1470723312
 31
0.0
  0
LINE
  5
82
330
65
100
AcDbEntity
  8
DV1_Default
  6
CENTER2
 62
     7
 48
25.4
100
AcDbLine
 10
225.6833234388
 20
239.4772219931
 30
0.0
 11
116.7068512105
 21
239.4772219931
 31
0.0
  0
LINE
  5
83
330
65
100
AcDbEntity
  8
DV1_Default
  6
Continuous
 62
     7
 48
25.4
100
AcDbLine
 10
219.4411812871
 20
248.2794639552
 30
0.0
 11
207.5411812871
 21
248.2794639552
 31
0.0
  0
LINE
  5
84
330
65
100
AcDbEntity
  8
DV1_Default
  6
Continuous
 62
     7
 48
25.4
100
AcDbLine
 10
207.5411812871
 20
248.2794639552
 30
0.0
 11
207.5411812871
 21
239.4772219931
 31
0.0
  0
LINE
  5
85
330
65
100
AcDbEntity
  8
DV1_Default
  6
Continuous
 62
     7
 48
25.4
100
AcDbLine
 10
207.5411812871
 20
245.4272195576
 30
0.0
 11
152.9459023825
 21
245.4272195576
 31
0.0
  0
LINE
  5
86
330
65
100
AcDbEntity
  8
DV1_Default
  6
Continuous
 62
     7
 48
25.4
100
AcDbLine
 10
207.5411812871
 20
245.4272195576
 30
0.0
 11
207.5411812871
 21
245.0772195576
 31
0.0
  0
LINE
  5
87
330
65
100
AcDbEntity
  8
DV1_Default
  6
Continuous
 62
     7
 48
25.4
100
AcDbLine
 10
207.5411812871
 20
245.0772195576
 30
0.0
 11
137.5459023825
 21
245.0772195576
 31
0.0
  0
LINE
  5
88
330
65
100
AcDbEntity
  8
DV1_Default
  6
Continuous
 62
     7
 48
25.4
100
AcDbLine
 10
152.9459023825
 20
223.1672219931
 30
0.0
 11
152.9459023825
 21
233.5272244287
 31
0.0
  0
LINE
  5
89
330
65
100
AcDbEntity
  8
DV1_Default
  6
Continuous
 62
     7
 48
25.4
100
AcDbLine
 10
161.8886774685
 20
245.0772195576
 30
0.0
 11
161.8886774685
 21
239.4772219931
 31
0.0
  0
LINE
  5
8A
330
65
100
AcDbEntity
  8
DV1_Default
  6
Continuous
 62
     7
 48
25.4
100
AcDbLine
 10
161.8886774685
 20
244.3772195576
 30
0.0
 11
137.5459023825
 21
244.3772195576
 31
0.0
  0
LINE
  5
8B
330
65
100
AcDbEntity
  8
DV1_Default
  6
Continuous
 62
     7
 48
25.4
100
AcDbLine
 10
165.545054269
 20
265.5172219931
 30
0.0
 11
165.545054269
 21
250.7289499644
 31
0.0
  0
LINE
  5
8C
330
65
100
AcDbEntity
  8
DV1_Default
  6
Continuous
 62
     7
 48
25.4
100
AcDbLine
 10
178.0269912957
 20
254.6066838467
 30
0.0
 11
178.0269912957
 21
250.7289499644
 31
0.0
  0
LINE
  5
8D
330
65
100
AcDbEntity
  8
DV1_Default
  6
Continuous
 62
     7
 48
25.4
100
AcDbLine
 10
165.545054269
 20
257.847866233
 30
0.0
 11
165.545054269
 21
262.747866233
 31
0.0
  0
LINE
  5
8E
330
65
100
AcDbEntity
  8
DV1_Default
  6
Continuous
 62
     7
 48
25.4
100
AcDbLine
 10
172.545054269
 20
260.5566838467
 30
0.0
 11
184.6993049316
 21
260.5566838467
 31
0.0
  0
LINE
  5
8F
330
65
100
AcDbEntity
  8
DV1_Default
  6
Continuous
 62
     7
 48
25.4
100
AcDbLine
 10
184.6993049316
 20
254.9566838467
 30
0.0
 11
172.545054269
 21
254.9566838467
 31
0.0
  0
LINE
  5
90
330
65
100
AcDbEntity
  8
DV1_Default
  6
Continuous
 62
     7
 48
25.4
100
AcDbLine
 10
172.545054269
 20
260.2066838467
 30
0.0
 11
184.6993049316
 21
260.2066838467
 31
0.0
  0
LINE
  5
91
330
65
100
AcDbEntity
  8
DV1_Default
  6
Continuous
 62
     7
 48
25.4
100
AcDbLine
 10
172.545054269
 20
255.3066838467
 30
0.0
 11
184.6993049316
 21
255.3066838467
 31
0.0
  0
LINE
  5
92
330
65
100
AcDbEntity
  8
DV1_Default
  6
Continuous
 62
     7
 48
25.4
100
AcDbLine
 10
172.545054269
 20
260.9066838467
 30
0.0
 11
178.0269912957
 21
260.9066838467
 31
0.0
  0
LINE
  5
93
330
65
100
AcDbEntity
  8
DV1_Default
  6
Continuous
 62
     7
 48
25.4
100
AcDbLine
 10
172.545054269
 20
254.6066838467
 30
0.0
 11
178.0269912957
 21
254.6066838467
 31
0.0
  0
LINE
  5
94
330
65
100
AcDbEntity
  8
DV1_Default
  6
Continuous
 62
     7
 48
25.4
100
AcDbLine
 10
184.6993049316
 20
260.5566838467
 30
0.0
 11
184.6993049316
 21
254.9566838467
 31
0.0
  0
LINE
  5
95
330
65
100
AcDbEntity
  8
DV1_Default
  6
Continuous
 62
     7
 48
25.4
100
AcDbLine
 10
216.6411812871
 20
267.5352039435
 30
0.0
 11
211.39263272
 21
267.5352039435
 31
0.0
  0
LINE
  5
96
330
65
100
AcDbEntity
  8
DV1_Default
  6
Continuous
 62
     7
 48
25.4
100
AcDbLine
 10
211.39263272
 20
264.0352039435
 30
0.0
 11
216.6411812871
 21
264.0352039435
 31
0.0
  0
LINE
  5
97
330
65
100
AcDbEntity
  8
DV1_Default
  6
Continuous
 62
     7
 48
25.4
100
AcDbLine
 10
215.508507466
 20
263.6746782442
 30
0.0
 11
215.508507466
 21
261.6978018451
 31
0.0
  0
LINE
  5
98
330
65
100
AcDbEntity
  8
DV1_Default
  6
Continuous
 62
     7
 48
25.4
100
AcDbLine
 10
216.6411812871
 20
267.2013974575
 30
0.0
 11
211.39263272
 21
267.2013974575
 31
0.0
  0
LINE
  5
99
330
65
100
AcDbEntity
  8
DV1_Default
  6
Continuous
 62
     7
 48
25.4
100
AcDbLine
 10
216.6411812871
 20
264.4013974575
 30
0.0
 11
211.39263272
 21
264.4013974575
 31
0.0
  0
LINE
  5
9A
330
65
100
AcDbEntity
  8
DV1_Default
  6
Continuous
 62
     7
 48
25.4
100
AcDbLine
 10
207.5411812871
 20
247.9294639552
 30
0.0
 11
218.7411812871
 21
247.9294639552
 31
0.0
  0
LINE
  5
9B
330
65
100
AcDbEntity
  8
DV1_Default
  6
Continuous
 62
     7
 48
25.4
100
AcDbLine
 10
219.0911812871
 20
247.5794639552
 30
0.0
 11
219.0911812871
 21
239.4772219931
 31
0.0
  0
LINE
  5
9C
330
65
100
AcDbEntity
  8
DV1_Default
  6
Continuous
 62
     7
 48
25.4
100
AcDbLine
 10
218.7411812871
 20
247.9294639552
 30
0.0
 11
219.0911812871
 21
247.5794639552
 31
0.0
  0
LINE
  5
9D
330
65
100
AcDbEntity
  8
DV1_Default
  6
Continuous
 62
     7
 48
25.4
100
AcDbLine
 10
218.7411812871
 20
247.9294639552
 30
0.0
 11
218.7411812871
 21
239.4772219931
 31
0.0
  0
LINE
  5
9E
330
65
100
AcDbEntity
  8
DV1_Default
  6
Continuous
 62
     7
 48
25.4
100
AcDbLine
 10
219.4411812871
 20
230.674980031
 30
0.0
 11
207.5411812871
 21
230.674980031
 31
0.0
  0
LINE
  5
9F
330
65
100
AcDbEntity
  8
DV1_Default
  6
Continuous
 62
     7
 48
25.4
100
AcDbLine
 10
207.5411812871
 20
230.674980031
 30
0.0
 11
207.5411812871
 21
239.4772219931
 31
0.0
  0
LINE
  5
A0
330
65
100
AcDbEntity
  8
DV1_Default
  6
Continuous
 62
     7
 48
25.4
100
AcDbLine
 10
207.5411812871
 20
233.5272244287
 30
0.0
 11
152.9459023825
 21
233.5272244287
 31
0.0
  0
LINE
  5
A1
330
65
100
AcDbEntity
  8
DV1_Default
  6
Continuous
 62
     7
 48
25.4
100
AcDbLine
 10
207.5411812871
 20
233.5272244287
 30
0.0
 11
207.5411812871
 21
233.8772244287
 31
0.0
  0
LINE
  5
A2
330
65
100
AcDbEntity
  8
DV1_Default
  6
Continuous
 62
     7
 48
25.4
100
AcDbLine
 10
207.5411812871
 20
233.8772244287
 30
0.0
 11
137.5459023825
 21
233.8772244287
 31
0.0
  0
LINE
  5
A3
330
65
100
AcDbEntity
  8
DV1_Default
  6
Continuous
 62
     7
 48
25.4
100
AcDbLine
 10
161.8886774685
 20
233.8772244287
 30
0.0
 11
161.8886774685
 21
239.4772219931
 31
0.0
  0
LINE
  5
A4
330
65
100
AcDbEntity
  8
DV1_Default
  6
Continuous
 62
     7
 48
25.4
100
AcDbLine
 10
161.8886774685
 20
234.5772244287
 30
0.0
 11
137.5459023825
 21
234.5772244287
 31
0.0
  0
LINE
  5
A5
330
65
100
AcDbEntity
  8
DV1_Default
  6
Continuous
 62
     7
 48
25.4
100
AcDbLine
 10
207.5411812871
 20
231.024980031
 30
0.0
 11
218.7411812871
 21
231.024980031
 31
0.0
  0
LINE
  5
A6
330
65
100
AcDbEntity
  8
DV1_Default
  6
Continuous
 62
     7
 48
25.4
100
AcDbLine
 10
219.0911812871
 20
231.374980031
 30
0.0
 11
219.0911812871
 21
239.4772219931
 31
0.0
  0
LINE
  5
A7
330
65
100
AcDbEntity
  8
DV1_Default
  6
Continuous
 62
     7
 48
25.4
100
AcDbLine
 10
218.7411812871
 20
231.024980031
 30
0.0
 11
219.0911812871
 21
231.374980031
 31
0.0
  0
LINE
  5
A8
330
65
100
AcDbEntity
  8
DV1_Default
  6
Continuous
 62
     7
 48
25.4
100
AcDbLine
 10
218.7411812871
 20
231.024980031
 30
0.0
 11
218.7411812871
 21
239.4772219931
 31
0.0
  0
LINE
  5
A9
330
65
100
AcDbEntity
  8
DV1_Default
  6
Continuous
 62
     7
 48
25.4
100
AcDbLine
 10
165.545054269
 20
250.7289499644
 30
0.0
 11
178.0269912957
 21
250.7289499644
 31
0.0
  0
LINE
  5
AA
330
65
100
AcDbEntity
  8
DV1_Default
  6
CENTER2
 62
     7
 48
25.4
100
AcDbLine
 10
163.095054269
 20
257.847866233
 30
0.0
 11
188.2587218207
 21
257.847866233
 31
0.0
  0
LINE
  5
AB
330
65
100
AcDbEntity
  8
DV1_Default
  6
Continuous
 62
     7
 48
25.4
100
AcDbLine
 10
172.545054269
 20
263.4089934445
 30
0.0
 11
165.545054269
 21
263.4089934445
 31
0.0
  0
LINE
  5
AC
330
65
100
AcDbEntity
  8
DV1_Default
  6
Continuous
 62
     7
 48
25.4
100
AcDbLine
 10
172.545054269
 20
252.2089934445
 30
0.0
 11
165.545054269
 21
252.2089934445
 31
0.0
  0
LINE
  5
AD
330
65
100
AcDbEntity
  8
DV1_Default
  6
Continuous
 62
     7
 48
25.4
100
AcDbLine
 10
172.545054269
 20
263.4089934445
 30
0.0
 11
172.545054269
 21
252.2089934445
 31
0.0
  0
LINE
  5
AE
330
65
100
AcDbEntity
  8
DV1_Default
  6
Continuous
 62
     7
 48
25.4
100
AcDbLine
 10
165.545054269
 20
263.4089934445
 30
0.0
 11
165.545054269
 21
263.0589934445
 31
0.0
  0
LINE
  5
AF
330
65
100
AcDbEntity
  8
DV1_Default
  6
Continuous
 62
     7
 48
25.4
100
AcDbLine
 10
166.245054269
 20
263.0589934445
 30
0.0
 11
172.545054269
 21
263.0589934445
 31
0.0
  0
LINE
  5
B0
330
65
100
AcDbEntity
  8
DV1_Default
  6
Continuous
 62
     7
 48
25.4
100
AcDbLine
 10
172.545054269
 20
252.2089934445
 30
0.0
 11
172.545054269
 21
252.5589934445
 31
0.0
  0
LINE
  5
B1
330
65
100
AcDbEntity
  8
DV1_Default
  6
Continuous
 62
     7
 48
25.4
100
AcDbLine
 10
172.545054269
 20
252.5589934445
 30
0.0
 11
166.245054269
 21
252.5589934445
 31
0.0
  0
LINE
  5
B2
330
65
100
AcDbEntity
  8
DV1_Default
  6
Continuous
 62
     7
 48
25.4
100
AcDbLine
 10
165.895054269
 20
252.9089934445
 30
0.0
 11
165.895054269
 21
262.7089934445
 31
0.0
  0
LINE
  5
B3
330
65
100
AcDbEntity
  8
DV1_Default
  6
Continuous
 62
     7
 48
25.4
100
AcDbLine
 10
166.245054269
 20
252.5589934445
 30
0.0
 11
165.895054269
 21
252.9089934445
 31
0.0
  0
LINE
  5
B4
330
65
100
AcDbEntity
  8
DV1_Default
  6
Continuous
 62
     7
 48
25.4
100
AcDbLine
 10
165.895054269
 20
262.7089934445
 30
0.0
 11
166.245054269
 21
263.0589934445
 31
0.0
  0
LINE
  5
B5
330
65
100
AcDbEntity
  8
DV1_Default
  6
Continuous
 62
     7
 48
25.4
100
AcDbLine
 10
166.245054269
 20
263.0589934445
 30
0.0
 11
166.245054269
 21
252.5589934445
 31
0.0
  0
LINE
  5
B6
330
65
100
AcDbEntity
  8
DV1_Default
  6
Continuous
 62
     7
 48
25.4
100
AcDbLine
 10
211.39263272
 20
267.5352039435
 30
0.0
 11
210.34263272
 21
267.5352039435
 31
0.0
  0
LINE
  5
B7
330
65
100
AcDbEntity
  8
DV1_Default
  6
Continuous
 62
     7
 48
25.4
100
AcDbLine
 10
210.34263272
 20
267.5352039435
 30
0.0
 11
210.34263272
 21
264.0352039435
 31
0.0
  0
LINE
  5
B8
330
65
100
AcDbEntity
  8
DV1_Default
  6
Continuous
 62
     7
 48
25.4
100
AcDbLine
 10
210.34263272
 20
264.0352039435
 30
0.0
 11
211.39263272
 21
264.0352039435
 31
0.0
  0
LINE
  5
B9
330
65
100
AcDbEntity
  8
DV1_Default
  6
Continuous
 62
     7
 48
25.4
100
AcDbLine
 10
211.39263272
 20
267.2013974575
 30
0.0
 11
210.34263272
 21
267.2013974575
 31
0.0
  0
LINE
  5
BA
330
65
100
AcDbEntity
  8
DV1_Default
  6
Continuous
 62
     7
 48
25.4
100
AcDbLine
 10
211.39263272
 20
264.4013974575
 30
0.0
 11
210.34263272
 21
264.4013974575
 31
0.0
  0
LINE
  5
BB
330
65
100
AcDbEntity
  8
DV1_Default
  6
CENTER2
 62
     7
 48
25.4
100
AcDbLine
 10
207.8926327205
 20
265.7852514914
 30
0.0
 11
224.045303458
 21
265.7849380119
 31
0.0
  0
LINE
  5
BC
330
65
100
AcDbEntity
  8
DV1_Default
  6
Continuous
 62
     7
 48
25.4
100
AcDbLine
 10
221.3311812871
 20
389.0672219931
 30
0.0
 11
249.6811812871
 21
389.0672219931
 31
0.0
  0
LINE
  5
BD
330
65
100
AcDbEntity
  8
DV1_Default
  6
Continuous
 62
     7
 48
25.4
100
AcDbLine
 10
249.6811812871
 20
389.0672219931
 30
0.0
 11
249.6811812871
 21
312.0672219931
 31
0.0
  0
LINE
  5
BE
330
65
100
AcDbEntity
  8
DV1_Default
  6
Continuous
 62
     7
 48
25.4
100
AcDbLine
 10
249.6811812871
 20
312.0672219931
 30
0.0
 11
222.0311812871
 21
312.0672219931
 31
0.0
  0
LINE
  5
BF
330
65
100
AcDbEntity
  8
DV1_Default
  6
Continuous
 62
     7
 48
25.4
100
AcDbLine
 10
220.2811812871
 20
325.696458964
 30
0.0
 11
220.2811812871
 21
388.0172219931
 31
0.0
  0
LINE
  5
C0
330
65
100
AcDbEntity
  8
DV1_Default
  6
Continuous
 62
     7
 48
25.4
100
AcDbLine
 10
222.0311812871
 20
312.0672219931
 30
0.0
 11
223.7811812871
 21
312.0672219931
 31
0.0
  0
LINE
  5
C1
330
65
100
AcDbEntity
  8
DV1_Default
  6
Continuous
 62
     7
 48
25.4
100
AcDbLine
 10
223.7811812871
 20
312.0672219931
 30
0.0
 11
223.7811812871
 21
342.458902376
 31
0.0
  0
LINE
  5
C2
330
65
100
AcDbEntity
  8
DV1_Default
  6
Continuous
 62
     7
 48
25.4
100
AcDbLine
 10
223.7811812871
 20
312.0672219931
 30
0.0
 11
222.0311812871
 21
312.0672219931
 31
0.0
  0
LINE
  5
C3
330
65
100
AcDbEntity
  8
DV1_Default
  6
Continuous
 62
     7
 48
25.4
100
AcDbLine
 10
222.0311812871
 20
312.0672219931
 30
0.0
 11
222.0311812871
 21
325.2668865244
 31
0.0
  0
ARC
  5
C4
330
65
100
AcDbEntity
  8
DV1_Default
  6
Continuous
 62
     7
 48
25.4
100
AcDbCircle
 10
221.5724126611
 20
327.1773236686
 30
0.0
 40
1.96474902581835
100
AcDbArc
 50
228.9133883584
 51
283.5032112508
  0
LINE
  5
C5
330
65
100
AcDbEntity
  8
DV1_Default
  6
Continuous
 62
     7
 48
25.4
100
AcDbLine
 10
249.6811812871
 20
361.4172219931
 30
0.0
 11
230.7811812871
 21
361.4172219931
 31
0.0
  0
LINE
  5
C6
330
65
100
AcDbEntity
  8
DV1_Default
  6
Continuous
 62
     7
 48
25.4
100
AcDbLine
 10
230.7811812871
 20
361.4172219931
 30
0.0
 11
230.7811812871
 21
374.7172219931
 31
0.0
  0
LINE
  5
C7
330
65
100
AcDbEntity
  8
DV1_Default
  6
Continuous
 62
     7
 48
25.4
100
AcDbLine
 10
230.7811812871
 20
374.7172219931
 30
0.0
 11
249.6811812871
 21
374.7172219931
 31
0.0
  0
LINE
  5
C8
330
65
100
AcDbEntity
  8
DV1_Default
  6
Continuous
 62
     7
 48
25.4
100
AcDbLine
 10
230.7811812871
 20
372.6753841269
 30
0.0
 11
223.7811812871
 21
372.6753841269
 31
0.0
  0
LINE
  5
C9
330
65
100
AcDbEntity
  8
DV1_Default
  6
Continuous
 62
     7
 48
25.4
100
AcDbLine
 10
230.7811812871
 20
363.5753841269
 30
0.0
 11
223.7811812871
 21
363.5753841269
 31
0.0
  0
LINE
  5
CA
330
65
100
AcDbEntity
  8
DV1_Default
  6
Continuous
 62
     7
 48
25.4
100
AcDbLine
 10
220.8061812871
 20
375.0827873361
 30
0.0
 11
223.0811812871
 21
375.0827873361
 31
0.0
  0
LINE
  5
CB
330
65
100
AcDbEntity
  8
DV1_Default
  6
Continuous
 62
     7
 48
25.4
100
AcDbLine
 10
223.0811812871
 20
375.0827873361
 30
0.0
 11
223.0811812871
 21
357.5671432514
 31
0.0
  0
LINE
  5
CC
330
65
100
AcDbEntity
  8
DV1_Default
  6
Continuous
 62
     7
 48
25.4
100
AcDbLine
 10
230.7811812871
 20
372.2224715146
 30
0.0
 11
223.0811812871
 21
372.2224715146
 31
0.0
  0
LINE
  5
CD
330
65
100
AcDbEntity
  8
DV1_Default
  6
Continuous
 62
     7
 48
25.4
100
AcDbLine
 10
230.7811812871
 20
371.635740064
 30
0.0
 11
223.0811812871
 21
371.635740064
 31
0.0
  0
LINE
  5
CE
330
65
100
AcDbEntity
  8
DV1_Default
  6
Continuous
 62
     7
 48
25.4
100
AcDbLine
 10
230.7811812871
 20
364.0082312066
 30
0.0
 11
223.0811812871
 21
364.0082312066
 31
0.0
  0
LINE
  5
CF
330
65
100
AcDbEntity
  8
DV1_Default
  6
Continuous
 62
     7
 48
25.4
100
AcDbLine
 10
230.7811812871
 20
364.4482797945
 30
0.0
 11
223.0811812871
 21
364.4482797945
 31
0.0
  0
LINE
  5
D0
330
65
100
AcDbEntity
  8
DV1_Default
  6
Continuous
 62
     7
 48
25.4
100
AcDbLine
 10
223.7811812871
 20
372.6753841269
 30
0.0
 11
223.7811812871
 21
389.0672219931
 31
0.0
  0
LINE
  5
D1
330
65
100
AcDbEntity
  8
DV1_Default
  6
Continuous
 62
     7
 48
25.4
100
AcDbLine
 10
230.7811812871
 20
374.7172219931
 30
0.0
 11
230.7811812871
 21
374.3672219931
 31
0.0
  0
LINE
  5
D2
330
65
100
AcDbEntity
  8
DV1_Default
  6
Continuous
 62
     7
 48
25.4
100
AcDbLine
 10
230.7811812871
 20
374.3672219931
 30
0.0
 11
238.8311812871
 21
374.3672219931
 31
0.0
  0
LINE
  5
D3
330
65
100
AcDbEntity
  8
DV1_Default
  6
Continuous
 62
     7
 48
25.4
100
AcDbLine
 10
239.1811812871
 20
374.0172219931
 30
0.0
 11
239.1811812871
 21
362.117550327
 31
0.0
  0
LINE
  5
D4
330
65
100
AcDbEntity
  8
DV1_Default
  6
Continuous
 62
     7
 48
25.4
100
AcDbLine
 10
238.8311812871
 20
361.767550327
 30
0.0
 11
230.7811812871
 21
361.767550327
 31
0.0
  0
LINE
  5
D5
330
65
100
AcDbEntity
  8
DV1_Default
  6
Continuous
 62
     7
 48
25.4
100
AcDbLine
 10
238.8311812871
 20
374.3672219931
 30
0.0
 11
239.1811812871
 21
374.0172219931
 31
0.0
  0
LINE
  5
D6
330
65
100
AcDbEntity
  8
DV1_Default
  6
Continuous
 62
     7
 48
25.4
100
AcDbLine
 10
238.8311812871
 20
361.767550327
 30
0.0
 11
239.1811812871
 21
362.117550327
 31
0.0
  0
LINE
  5
D7
330
65
100
AcDbEntity
  8
DV1_Default
  6
Continuous
 62
     7
 48
25.4
100
AcDbLine
 10
238.8311812871
 20
374.3672219931
 30
0.0
 11
238.8311812871
 21
361.767550327
 31
0.0
  0
LINE
  5
D8
330
65
100
AcDbEntity
  8
DV1_Default
  6
Continuous
 62
     7
 48
25.4
100
AcDbLine
 10
249.6811812871
 20
353.7170645097
 30
0.0
 11
230.7811812871
 21
353.7170645097
 31
0.0
  0
LINE
  5
D9
330
65
100
AcDbEntity
  8
DV1_Default
  6
Continuous
 62
     7
 48
25.4
100
AcDbLine
 10
230.7811812871
 20
353.7170645097
 30
0.0
 11
230.7811812871
 21
340.4170645097
 31
0.0
  0
LINE
  5
DA
330
65
100
AcDbEntity
  8
DV1_Default
  6
Continuous
 62
     7
 48
25.4
100
AcDbLine
 10
230.7811812871
 20
340.4170645097
 30
0.0
 11
249.6811812871
 21
340.4170645097
 31
0.0
  0
LINE
  5
DB
330
65
100
AcDbEntity
  8
DV1_Default
  6
Continuous
 62
     7
 48
25.4
100
AcDbLine
 10
230.7811812871
 20
342.458902376
 30
0.0
 11
223.7811812871
 21
342.458902376
 31
0.0
  0
LINE
  5
DC
330
65
100
AcDbEntity
  8
DV1_Default
  6
Continuous
 62
     7
 48
25.4
100
AcDbLine
 10
230.7811812871
 20
351.558902376
 30
0.0
 11
223.7811812871
 21
351.558902376
 31
0.0
  0
LINE
  5
DD
330
65
100
AcDbEntity
  8
DV1_Default
  6
Continuous
 62
     7
 48
25.4
100
AcDbLine
 10
220.8061812871
 20
340.0514991667
 30
0.0
 11
223.0811812871
 21
340.0514991667
 31
0.0
  0
LINE
  5
DE
330
65
100
AcDbEntity
  8
DV1_Default
  6
Continuous
 62
     7
 48
25.4
100
AcDbLine
 10
223.0811812871
 20
340.0514991667
 30
0.0
 11
223.0811812871
 21
357.5671432514
 31
0.0
  0
LINE
  5
DF
330
65
100
AcDbEntity
  8
DV1_Default
  6
Continuous
 62
     7
 48
25.4
100
AcDbLine
 10
230.7811812871
 20
342.9118149883
 30
0.0
 11
223.0811812871
 21
342.9118149883
 31
0.0
  0
LINE
  5
E0
330
65
100
AcDbEntity
  8
DV1_Default
  6
Continuous
 62
     7
 48
25.4
100
AcDbLine
 10
230.7811812871
 20
343.4985464388
 30
0.0
 11
223.0811812871
 21
343.4985464388
 31
0.0
  0
LINE
  5
E1
330
65
100
AcDbEntity
  8
DV1_Default
  6
Continuous
 62
     7
 48
25.4
100
AcDbLine
 10
230.7811812871
 20
351.1260552962
 30
0.0
 11
223.0811812871
 21
351.1260552962
 31
0.0
  0
LINE
  5
E2
330
65
100
AcDbEntity
  8
DV1_Default
  6
Continuous
 62
     7
 48
25.4
100
AcDbLine
 10
230.7811812871
 20
350.6860067083
 30
0.0
 11
223.0811812871
 21
350.6860067083
 31
0.0
  0
LINE
  5
E3
330
65
100
AcDbEntity
  8
DV1_Default
  6
Continuous
 62
     7
 48
25.4
100
AcDbLine
 10
230.7811812871
 20
340.4170645097
 30
0.0
 11
230.7811812871
 21
340.7670645097
 31
0.0
  0
LINE
  5
E4
330
65
100
AcDbEntity
  8
DV1_Default
  6
Continuous
 62
     7
 48
25.4
100
AcDbLine
 10
230.7811812871
 20
340.7670645097
 30
0.0
 11
238.8311812871
 21
340.7670645097
 31
0.0
  0
LINE
  5
E5
330
65
100
AcDbEntity
  8
DV1_Default
  6
Continuous
 62
     7
 48
25.4
100
AcDbLine
 10
239.1811812871
 20
341.1170645097
 30
0.0
 11
239.1811812871
 21
353.0167361759
 31
0.0
  0
LINE
  5
E6
330
65
100
AcDbEntity
  8
DV1_Default
  6
Continuous
 62
     7
 48
25.4
100
AcDbLine
 10
238.8311812871
 20
353.3667361759
 30
0.0
 11
230.7811812871
 21
353.3667361759
 31
0.0
  0
LINE
  5
E7
330
65
100
AcDbEntity
  8
DV1_Default
  6
Continuous
 62
     7
 48
25.4
100
AcDbLine
 10
238.8311812871
 20
340.7670645097
 30
0.0
 11
239.1811812871
 21
341.1170645097
 31
0.0
  0
LINE
  5
E8
330
65
100
AcDbEntity
  8
DV1_Default
  6
Continuous
 62
     7
 48
25.4
100
AcDbLine
 10
238.8311812871
 20
353.3667361759
 30
0.0
 11
239.1811812871
 21
353.0167361759
 31
0.0
  0
LINE
  5
E9
330
65
100
AcDbEntity
  8
DV1_Default
  6
Continuous
 62
     7
 48
25.4
100
AcDbLine
 10
238.8311812871
 20
340.7670645097
 30
0.0
 11
238.8311812871
 21
353.3667361759
 31
0.0
  0
LINE
  5
EA
330
65
100
AcDbEntity
  8
DV1_Default
  6
Continuous
 62
     7
 48
25.4
100
AcDbLine
 10
223.7811812871
 20
351.558902376
 30
0.0
 11
223.7811812871
 21
363.5753841269
 31
0.0
  0
LINE
  5
EB
330
65
100
AcDbEntity
  8
DV1_Default
  6
Continuous
 62
     7
 48
25.4
100
AcDbLine
 10
149.4411812871
 20
386.9672219931
 30
0.0
 11
150.8411812871
 21
388.3672219931
 31
0.0
  0
LINE
  5
EC
330
65
100
AcDbEntity
  8
DV1_Default
  6
Continuous
 62
     7
 48
25.4
100
AcDbLine
 10
149.4411812871
 20
211.9672219931
 30
0.0
 11
150.8411812871
 21
210.5672219931
 31
0.0
  0
LINE
  5
ED
330
65
100
AcDbEntity
  8
DV1_Default
  6
Continuous
 62
     7
 48
25.4
100
AcDbLine
 10
218.0411812871
 20
210.5672219931
 30
0.0
 11
219.4411812871
 21
211.9672219931
 31
0.0
  0
LINE
  5
EF
330
65
100
AcDbEntity
  8
DV1_Default
  6
HIDDEN2
 62
     7
 48
25.4
100
AcDbLine
 10
218.0411812871
 20
388.3672219931
 30
0.0
 11
219.4411812871
 21
386.9672219931
 31
0.0
  0
LINE
  5
F0
330
65
100
AcDbEntity
  8
DV1_Default
  6
Continuous
 62
     7
 48
25.4
100
AcDbLine
 10
249.6811812871
 20
374.7172219931
 30
0.0
 11
249.6811812871
 21
361.4172219931
 31
0.0
  0
LINE
  5
F1
330
65
100
AcDbEntity
  8
DV1_Default
  6
CENTER2
 62
     7
 48
25.4
100
AcDbLine
 10
252.1311812871
 20
368.0672219931
 30
0.0
 11
214.0957340009
 21
368.0672219931
 31
0.0
  0
LINE
  5
F2
330
65
100
AcDbEntity
  8
DV1_Default
  6
Continuous
 62
     7
 48
25.4
100
AcDbLine
 10
249.6811812871
 20
353.7170645097
 30
0.0
 11
249.6811812871
 21
340.4170645097
 31
0.0
  0
LINE
  5
F3
330
65
100
AcDbEntity
  8
DV1_Default
  6
CENTER2
 62
     7
 48
25.4
100
AcDbLine
 10
116.7043178625
 20
252.6975094701
 30
0.0
 11
157.056485762
 21
252.6975094701
 31
0.0
  0
LINE
  5
F4
330
65
100
AcDbEntity
  8
DV1_Default
  6
Continuous
 62
     7
 48
25.4
100
AcDbLine
 10
152.9459023825
 20
252.6975094701
 30
0.0
 11
152.9459023825
 21
259.3475094701
 31
0.0
  0
LINE
  5
F5
330
65
100
AcDbEntity
  8
DV1_Default
  6
Continuous
 62
     7
 48
25.4
100
AcDbLine
 10
152.9459023825
 20
259.3475094701
 30
0.0
 11
144.5459023825
 21
259.3475094701
 31
0.0
  0
LINE
  5
F6
330
65
100
AcDbEntity
  8
DV1_Default
  6
Continuous
 62
     7
 48
25.4
100
AcDbLine
 10
144.5459023825
 20
259.3475094701
 30
0.0
 11
144.5459023825
 21
246.0475094701
 31
0.0
  0
LINE
  5
F7
330
65
100
AcDbEntity
  8
DV1_Default
  6
Continuous
 62
     7
 48
25.4
100
AcDbLine
 10
144.5459023825
 20
246.0475094701
 30
0.0
 11
152.9459023825
 21
246.0475094701
 31
0.0
  0
LINE
  5
F8
330
65
100
AcDbEntity
  8
DV1_Default
  6
Continuous
 62
     7
 48
25.4
100
AcDbLine
 10
144.5459023825
 20
252.6931615636
 30
0.0
 11
144.5459023825
 21
256.8931615636
 31
0.0
  0
LINE
  5
F9
330
65
100
AcDbEntity
  8
DV1_Default
  6
Continuous
 62
     7
 48
25.4
100
AcDbLine
 10
144.5459023825
 20
256.8931615636
 30
0.0
 11
135.4459023825
 21
256.8931615636
 31
0.0
  0
LINE
  5
FA
330
65
100
AcDbEntity
  8
DV1_Default
  6
Continuous
 62
     7
 48
25.4
100
AcDbLine
 10
135.4459023825
 20
256.8931615636
 30
0.0
 11
122.4959023825
 21
256.8931615636
 31
0.0
  0
LINE
  5
FB
330
65
100
AcDbEntity
  8
DV1_Default
  6
Continuous
 62
     7
 48
25.4
100
AcDbLine
 10
122.4959023825
 20
256.8931615636
 30
0.0
 11
122.4959023825
 21
248.4931615636
 31
0.0
  0
LINE
  5
FC
330
65
100
AcDbEntity
  8
DV1_Default
  6
Continuous
 62
     7
 48
25.4
100
AcDbLine
 10
122.4959023825
 20
248.4931615636
 30
0.0
 11
135.4459023825
 21
248.4931615636
 31
0.0
  0
LINE
  5
FD
330
65
100
AcDbEntity
  8
DV1_Default
  6
Continuous
 62
     7
 48
25.4
100
AcDbLine
 10
135.4459023825
 20
248.4931615636
 30
0.0
 11
144.5459023825
 21
248.4931615636
 31
0.0
  0
LINE
  5
FE
330
65
100
AcDbEntity
  8
DV1_Default
  6
Continuous
 62
     7
 48
25.4
100
AcDbLine
 10
144.5459023825
 20
256.5431615636
 30
0.0
 11
122.4959023825
 21
256.5431615636
 31
0.0
  0
LINE
  5
FF
330
65
100
AcDbEntity
  8
DV1_Default
  6
Continuous
 62
     7
 48
25.4
100
AcDbLine
 10
144.5459023825
 20
248.8431615636
 30
0.0
 11
122.4959023825
 21
248.8431615636
 31
0.0
  0
LINE
  5
100
330
65
100
AcDbEntity
  8
DV1_Default
  6
Continuous
 62
     7
 48
25.4
100
AcDbLine
 10
144.5459023825
 20
257.2431615636
 30
0.0
 11
135.4459023825
 21
257.2431615636
 31
0.0
  0
LINE
  5
101
330
65
100
AcDbEntity
  8
DV1_Default
  6
Continuous
 62
     7
 48
25.4
100
AcDbLine
 10
144.5459023825
 20
248.1431615636
 30
0.0
 11
135.4459023825
 21
248.1431615636
 31
0.0
  0
LINE
  5
102
330
65
100
AcDbEntity
  8
DV1_Default
  6
Continuous
 62
     7
 48
25.4
100
AcDbLine
 10
144.5459023825
 20
259.3475094701
 30
0.0
 11
144.5459023825
 21
258.9975094701
 31
0.0
  0
LINE
  5
103
330
65
100
AcDbEntity
  8
DV1_Default
  6
Continuous
 62
     7
 48
25.4
100
AcDbLine
 10
144.5459023825
 20
258.9975094701
 30
0.0
 11
152.2459023825
 21
258.9975094701
 31
0.0
  0
LINE
  5
104
330
65
100
AcDbEntity
  8
DV1_Default
  6
Continuous
 62
     7
 48
25.4
100
AcDbLine
 10
152.5959023825
 20
258.6475094701
 30
0.0
 11
152.5959023825
 21
246.7475094701
 31
0.0
  0
LINE
  5
105
330
65
100
AcDbEntity
  8
DV1_Default
  6
Continuous
 62
     7
 48
25.4
100
AcDbLine
 10
152.2459023825
 20
246.3975094701
 30
0.0
 11
144.5459023825
 21
246.3975094701
 31
0.0
  0
LINE
  5
106
330
65
100
AcDbEntity
  8
DV1_Default
  6
Continuous
 62
     7
 48
25.4
100
AcDbLine
 10
152.5959023825
 20
258.6475094701
 30
0.0
 11
152.2459023825
 21
258.9975094701
 31
0.0
  0
LINE
  5
107
330
65
100
AcDbEntity
  8
DV1_Default
  6
Continuous
 62
     7
 48
25.4
100
AcDbLine
 10
152.2459023825
 20
258.9975094701
 30
0.0
 11
152.2459023825
 21
246.3975094701
 31
0.0
  0
LINE
  5
108
330
65
100
AcDbEntity
  8
DV1_Default
  6
Continuous
 62
     7
 48
25.4
100
AcDbLine
 10
137.5459023825
 20
233.8772244287
 30
0.0
 11
137.5459023825
 21
245.0772195576
 31
0.0
  0
LINE
  5
109
330
65
100
AcDbEntity
  8
DV1_Default
  6
Continuous
 62
     7
 48
25.4
100
AcDbLine
 10
135.4459023825
 20
222.8172219931
 30
0.0
 11
135.4459023825
 21
248.4931615636
 31
0.0
  0
LINE
  5
10A
330
65
100
AcDbEntity
  8
DV1_Default
  6
Continuous
 62
     7
 48
25.4
100
AcDbLine
 10
135.7959023825
 20
222.4672219931
 30
0.0
 11
135.4459023825
 21
222.8172219931
 31
0.0
  0
LINE
  5
10B
330
65
100
AcDbEntity
  8
DV1_Default
  6
Continuous
 62
     7
 48
25.4
100
AcDbLine
 10
135.4459023825
 20
376.1172219931
 30
0.0
 11
135.7959023825
 21
376.4672219931
 31
0.0
  0
LINE
  5
10C
330
65
100
AcDbEntity
  8
DV1_Default
  6
CENTER2
 62
     7
 48
25.4
100
AcDbLine
 10
252.1311812871
 20
347.0670645097
 30
0.0
 11
213.7164194133
 21
347.0670645097
 31
0.0
  0
LINE
  5
10D
330
65
100
AcDbEntity
  8
DV1_Default
  6
Continuous
 62
     7
 48
25.4
100
AcDbLine
 10
152.2459023825
 20
222.4672219931
 30
0.0
 11
152.9459023825
 21
223.1672219931
 31
0.0
  0
LINE
  5
10E
330
65
100
AcDbEntity
  8
DV1_Default
  6
Continuous
 62
     7
 48
25.4
100
AcDbLine
 10
152.2459023825
 20
376.4672219931
 30
0.0
 11
152.9459023825
 21
375.7672219931
 31
0.0
  0
LINE
  5
10F
330
65
100
AcDbEntity
  8
DV1_Default
  6
Continuous
 62
     7
 48
25.4
100
AcDbLine
 10
158.8959023825
 20
299.4672219931
 30
0.0
 11
158.8959023825
 21
266.2172219931
 31
0.0
  0
LINE
  5
110
330
65
100
AcDbEntity
  8
DV1_Default
  6
Continuous
 62
     7
 48
25.4
100
AcDbLine
 10
159.5959023825
 20
265.5172219931
 30
0.0
 11
171.4959023825
 21
265.5172219931
 31
0.0
  0
LINE
  5
111
330
65
100
AcDbEntity
  8
DV1_Default
  6
Continuous
 62
     7
 48
25.4
100
AcDbLine
 10
173.5959023825
 20
299.4672219931
 30
0.0
 11
173.5959023825
 21
267.2672219931
 31
0.0
  0
LINE
  5
112
330
65
100
AcDbEntity
  8
DV1_Default
  6
Continuous
 62
     7
 48
25.4
100
AcDbLine
 10
173.5959023825
 20
267.2672219931
 30
0.0
 11
176.3959023825
 21
267.2672219931
 31
0.0
  0
LINE
  5
113
330
65
100
AcDbEntity
  8
DV1_Default
  6
Continuous
 62
     7
 48
25.4
100
AcDbLine
 10
176.3959023825
 20
267.2672219931
 30
0.0
 11
176.3959023825
 21
299.4672219931
 31
0.0
  0
LINE
  5
114
330
65
100
AcDbEntity
  8
DV1_Default
  6
Continuous
 62
     7
 48
25.4
100
AcDbLine
 10
182.4903074166
 20
271.1172219931
 30
0.0
 11
182.4903074166
 21
299.4672219931
 31
0.0
  0
LINE
  5
115
330
65
100
AcDbEntity
  8
DV1_Default
  6
Continuous
 62
     7
 48
25.4
100
AcDbLine
 10
180.4769912957
 20
270.1539058722
 30
0.0
 11
215.508507466
 21
270.1539058722
 31
0.0
  0
LINE
  5
116
330
65
100
AcDbEntity
  8
DV1_Default
  6
Continuous
 62
     7
 48
25.4
100
AcDbLine
 10
181.5269912957
 20
270.1539058722
 30
0.0
 11
181.5269912957
 21
299.4961170785
 31
0.0
  0
LINE
  5
117
330
65
100
AcDbEntity
  8
DV1_Default
  6
Continuous
 62
     7
 48
25.4
100
AcDbLine
 10
180.4769912957
 20
299.4672219931
 30
0.0
 11
180.4769912957
 21
269.7362506954
 31
0.0
  0
LINE
  5
118
330
65
100
AcDbEntity
  8
DV1_Default
  6
Continuous
 62
     7
 48
25.4
100
AcDbLine
 10
180.4769912957
 20
269.7362506954
 30
0.0
 11
178.0269912957
 21
269.7362506954
 31
0.0
  0
LINE
  5
119
330
65
100
AcDbEntity
  8
DV1_Default
  6
Continuous
 62
     7
 48
25.4
100
AcDbLine
 10
219.4411812871
 20
269.2524868253
 30
0.0
 11
216.6411812871
 21
269.2524868253
 31
0.0
  0
LINE
  5
11A
330
65
100
AcDbEntity
  8
DV1_Default
  6
Continuous
 62
     7
 48
25.4
100
AcDbLine
 10
216.6411812871
 20
262.2524868253
 30
0.0
 11
219.4411812871
 21
262.2524868253
 31
0.0
  0
LINE
  5
11B
330
65
100
AcDbEntity
  8
DV1_Default
  6
Continuous
 62
     7
 48
25.4
100
AcDbLine
 10
215.508507466
 20
267.8852039435
 30
0.0
 11
215.508507466
 21
270.1541344099
 31
0.0
  0
ARC
  5
11C
330
65
100
AcDbEntity
  8
DV1_Default
  6
Continuous
 62
     7
 48
25.4
100
AcDbCircle
 10
215.9411812871
 20
265.7524868253
 30
0.0
 40
3.500000000000004
100
AcDbArc
 50
281.5369590328
 51
340.0515564112
  0
LINE
  5
11D
330
65
100
AcDbEntity
  8
DV1_Default
  6
Continuous
 62
     7
 48
25.4
100
AcDbLine
 10
219.4411812871
 20
269.2524868253
 30
0.0
 11
219.2311812871
 21
269.2524868253
 31
0.0
  0
LINE
  5
11E
330
65
100
AcDbEntity
  8
DV1_Default
  6
Continuous
 62
     7
 48
25.4
100
AcDbLine
 10
219.2311812871
 20
266.946597373
 30
0.0
 11
219.2311812871
 21
264.5583762777
 31
0.0
  0
ARC
  5
11F
330
65
100
AcDbEntity
  8
DV1_Default
  6
Continuous
 62
     7
 48
25.4
100
AcDbCircle
 10
215.9411812871
 20
265.7524868253
 30
0.0
 40
3.500000000000004
100
AcDbArc
 50
19.9484435888
 51
78.4630409672
  0
LINE
  5
120
330
65
100
AcDbEntity
  8
DV1_Default
  6
Continuous
 62
     7
 48
25.4
100
AcDbLine
 10
216.6411812871
 20
269.2524868253
 30
0.0
 11
216.6411812871
 21
262.2524868253
 31
0.0
  0
LINE
  5
121
330
65
100
AcDbEntity
  8
DV1_Default
  6
Continuous
 62
     7
 48
25.4
100
AcDbLine
 10
215.508507466
 20
261.6978018451
 30
0.0
 11
219.4411812871
 21
261.6978018451
 31
0.0
  0
LINE
  5
122
330
65
100
AcDbEntity
  8
DV1_Default
  6
Continuous
 62
     7
 48
25.4
100
AcDbLine
 10
216.6411812871
 20
267.8852039435
 30
0.0
 11
215.508507466
 21
267.8852039435
 31
0.0
  0
LINE
  5
123
330
65
100
AcDbEntity
  8
DV1_Default
  6
Continuous
 62
     7
 48
25.4
100
AcDbLine
 10
215.508507466
 20
263.6746782442
 30
0.0
 11
216.6411812871
 21
263.6746782442
 31
0.0
  0
LINE
  5
124
330
65
100
AcDbEntity
  8
DV1_Default
  6
Continuous
 62
     7
 48
25.4
100
AcDbLine
 10
158.8959023825
 20
266.2172219931
 30
0.0
 11
159.5959023825
 21
265.5172219931
 31
0.0
  0
LINE
  5
125
330
65
100
AcDbEntity
  8
DV1_Default
  6
Continuous
 62
     7
 48
25.4
100
AcDbLine
 10
178.0269912957
 20
269.7362506954
 30
0.0
 11
178.0269912957
 21
260.9066838467
 31
0.0
  0
LINE
  5
126
330
65
100
AcDbEntity
  8
DV1_Default
  6
Continuous
 62
     7
 48
25.4
100
AcDbLine
 10
171.4959023825
 20
333.4750121638
 30
0.0
 11
171.4959023825
 21
335.2250121638
 31
0.0
  0
LINE
  5
127
330
65
100
AcDbEntity
  8
DV1_Default
  6
Continuous
 62
     7
 48
25.4
100
AcDbLine
 10
171.4959023825
 20
335.2250121638
 30
0.0
 11
178.0269912957
 21
333.4750121638
 31
0.0
  0
LINE
  5
128
330
65
100
AcDbEntity
  8
DV1_Default
  6
Continuous
 62
     7
 48
25.4
100
AcDbLine
 10
158.8959023825
 20
331.0250121638
 30
0.0
 11
173.5959023825
 21
331.0250121638
 31
0.0
  0
LINE
  5
129
330
65
100
AcDbEntity
  8
DV1_Default
  6
Continuous
 62
     7
 48
25.4
100
AcDbLine
 10
158.8959023825
 20
330.3250121638
 30
0.0
 11
173.5959023825
 21
330.3250121638
 31
0.0
  0
LINE
  5
12A
330
65
100
AcDbEntity
  8
DV1_Default
  6
Continuous
 62
     7
 48
25.4
100
AcDbLine
 10
181.5269912957
 20
328.8383282847
 30
0.0
 11
182.4903074166
 21
327.8750121638
 31
0.0
  0
LINE
  5
12B
330
65
100
AcDbEntity
  8
DV1_Default
  6
Continuous
 62
     7
 48
25.4
100
AcDbLine
 10
178.699768859
 20
329.2559834615
 30
0.0
 11
178.699768859
 21
327.8668189286
 31
0.0
  0
LINE
  5
12C
330
65
100
AcDbEntity
  8
DV1_Default
  6
Continuous
 62
     7
 48
25.4
100
AcDbLine
 10
176.3959023825
 20
327.8668320408
 30
0.0
 11
180.4769912957
 21
327.8668320408
 31
0.0
  0
LINE
  5
12D
330
65
100
AcDbEntity
  8
DV1_Default
  6
Continuous
 62
     7
 48
25.4
100
AcDbLine
 10
165.545054269
 20
333.4750121638
 30
0.0
 11
165.545054269
 21
346.8451618258
 31
0.0
  0
LINE
  5
12E
330
65
100
AcDbEntity
  8
DV1_Default
  6
Continuous
 62
     7
 48
25.4
100
AcDbLine
 10
165.545054269
 20
333.4750121638
 30
0.0
 11
165.545054269
 21
348.2632841925
 31
0.0
  0
LINE
  5
12F
330
65
100
AcDbEntity
  8
DV1_Default
  6
Continuous
 62
     7
 48
25.4
100
AcDbLine
 10
165.545054269
 20
341.1443679239
 30
0.0
 11
165.545054269
 21
336.2443679239
 31
0.0
  0
LINE
  5
130
330
65
100
AcDbEntity
  8
DV1_Default
  6
Continuous
 62
     7
 48
25.4
100
AcDbLine
 10
165.545054269
 20
348.2632841925
 30
0.0
 11
178.0269912957
 21
348.2632841925
 31
0.0
  0
LINE
  5
131
330
65
100
AcDbEntity
  8
DV1_Default
  6
Continuous
 62
     7
 48
25.4
100
AcDbLine
 10
165.545054269
 20
335.5832407125
 30
0.0
 11
165.545054269
 21
335.9332407125
 31
0.0
  0
LINE
  5
132
330
65
100
AcDbEntity
  8
DV1_Default
  6
Continuous
 62
     7
 48
25.4
100
AcDbLine
 10
158.8959023825
 20
299.5250121638
 30
0.0
 11
158.8959023825
 21
332.7750121638
 31
0.0
  0
LINE
  5
133
330
65
100
AcDbEntity
  8
DV1_Default
  6
Continuous
 62
     7
 48
25.4
100
AcDbLine
 10
159.5959023825
 20
333.4750121638
 30
0.0
 11
171.4959023825
 21
333.4750121638
 31
0.0
  0
LINE
  5
134
330
65
100
AcDbEntity
  8
DV1_Default
  6
Continuous
 62
     7
 48
25.4
100
AcDbLine
 10
173.5959023825
 20
299.5250121638
 30
0.0
 11
173.5959023825
 21
331.7250121638
 31
0.0
  0
LINE
  5
135
330
65
100
AcDbEntity
  8
DV1_Default
  6
Continuous
 62
     7
 48
25.4
100
AcDbLine
 10
173.5959023825
 20
331.7250121638
 30
0.0
 11
176.3959023825
 21
331.7250121638
 31
0.0
  0
LINE
  5
136
330
65
100
AcDbEntity
  8
DV1_Default
  6
Continuous
 62
     7
 48
25.4
100
AcDbLine
 10
176.3959023825
 20
331.7250121638
 30
0.0
 11
176.3959023825
 21
299.5250121638
 31
0.0
  0
LINE
  5
137
330
65
100
AcDbEntity
  8
DV1_Default
  6
Continuous
 62
     7
 48
25.4
100
AcDbLine
 10
182.4903074166
 20
327.8750121638
 30
0.0
 11
182.4903074166
 21
299.5250121638
 31
0.0
  0
LINE
  5
138
330
65
100
AcDbEntity
  8
DV1_Default
  6
Continuous
 62
     7
 48
25.4
100
AcDbLine
 10
180.4769912957
 20
328.8383282847
 30
0.0
 11
215.508507466
 21
328.8383282847
 31
0.0
  0
LINE
  5
139
330
65
100
AcDbEntity
  8
DV1_Default
  6
Continuous
 62
     7
 48
25.4
100
AcDbLine
 10
181.5269912957
 20
328.8383282847
 30
0.0
 11
181.5269912957
 21
299.4961170785
 31
0.0
  0
LINE
  5
13A
330
65
100
AcDbEntity
  8
DV1_Default
  6
Continuous
 62
     7
 48
25.4
100
AcDbLine
 10
180.4769912957
 20
299.5250121638
 30
0.0
 11
180.4769912957
 21
329.2559834615
 31
0.0
  0
LINE
  5
13B
330
65
100
AcDbEntity
  8
DV1_Default
  6
Continuous
 62
     7
 48
25.4
100
AcDbLine
 10
180.4769912957
 20
329.2559834615
 30
0.0
 11
178.0269912957
 21
329.2559834615
 31
0.0
  0
LINE
  5
13C
330
65
100
AcDbEntity
  8
DV1_Default
  6
Continuous
 62
     7
 48
25.4
100
AcDbLine
 10
215.508507466
 20
337.2944323119
 30
0.0
 11
219.4411812871
 21
337.2944323119
 31
0.0
  0
LINE
  5
13D
330
65
100
AcDbEntity
  8
DV1_Default
  6
Continuous
 62
     7
 48
25.4
100
AcDbLine
 10
158.8959023825
 20
332.7750121638
 30
0.0
 11
159.5959023825
 21
333.4750121638
 31
0.0
  0
LINE
  5
13E
330
65
100
AcDbEntity
  8
DV1_Default
  6
Continuous
 62
     7
 48
25.4
100
AcDbLine
 10
178.0269912957
 20
329.2559834615
 30
0.0
 11
178.0269912957
 21
348.2632841925
 31
0.0
  0
SPLINE
  5
13F
330
65
100
AcDbEntity
  8
DV1_Default
  6
Continuous
 62
     7
 48
25.4
100
AcDbSpline
210
0.0
220
0.0
230
1.0
 70
     8
 71
     3
 72
    11
 73
     7
 74
     0
 42
0.0000000001
 43
0.0000000001
 40
0.0
 40
0.0
 40
0.0
 40
0.0
 40
0.0642786851575053
 40
0.2563960872948692
 40
0.7283386870546559
 40
1.0
 40
1.0
 40
1.0
 40
1.0
 10
152.9459023824664
 20
372.5678435948854
 30
0.0
 10
154.2658709526632
 20
371.6975946519995
 30
0.0
 10
159.236925794442
 20
369.3931772421323
 30
0.0
 10
179.8025293971032
 20
370.7407951332165
 30
0.0
 10
177.0828550121991
 20
341.4861840856317
 30
0.0
 10
188.0718199034959
 20
331.4980078144434
 30
0.0
 10
195.8136355456642
 20
328.8383281483748
 30
0.0
  0
LINE
  5
140
330
65
100
AcDbEntity
  8
DV1_Default
  6
Continuous
 62
     7
 48
25.4
100
AcDbLine
 10
215.508507466
 20
337.2944323119
 30
0.0
 11
215.508507466
 21
328.8383282847
 31
0.0
  0
LINE
  5
141
330
65
100
AcDbEntity
  8
DV1_Default
  6
Continuous
 62
     7
 48
25.4
100
AcDbLine
 10
219.4411812871
 20
328.8672219931
 30
0.0
 11
218.3911812871
 21
327.8172219931
 31
0.0
  0
LINE
  5
142
330
65
100
AcDbEntity
  8
DV1_Default
  6
Continuous
 62
     7
 48
25.4
100
AcDbLine
 10
219.4411812871
 20
270.0672219931
 30
0.0
 11
218.3911812871
 21
271.1172219931
 31
0.0
  0
LINE
  5
143
330
65
100
AcDbEntity
  8
DV1_Default
  6
Continuous
 62
     7
 48
25.4
100
AcDbLine
 10
218.3911812871
 20
327.8172219931
 30
0.0
 11
218.3911812871
 21
271.1172219931
 31
0.0
  0
LINE
  5
144
330
65
100
AcDbEntity
  8
DV1_Default
  6
Continuous
 62
     7
 48
25.4
100
AcDbLine
 10
215.508507466
 20
333.9149544159
 30
0.0
 11
216.208507466
 21
333.9149544159
 31
0.0
  0
LINE
  5
145
330
65
100
AcDbEntity
  8
DV1_Default
  6
Continuous
 62
     7
 48
25.4
100
AcDbLine
 10
216.208507466
 20
333.9149544159
 30
0.0
 11
219.4411812871
 21
332.0485693151
 31
0.0
  0
LINE
  5
146
330
65
100
AcDbEntity
  8
DV1_Default
  6
Continuous
 62
     7
 48
25.4
100
AcDbLine
 10
173.5959023825
 20
315.2172219931
 30
0.0
 11
158.8959023825
 21
315.2172219931
 31
0.0
  0
LINE
  5
147
330
65
100
AcDbEntity
  8
DV1_Default
  6
Continuous
 62
     7
 48
25.4
100
AcDbLine
 10
182.4903074166
 20
327.8172219931
 30
0.0
 11
218.3911812871
 21
327.8172219931
 31
0.0
  0
LINE
  5
148
330
65
100
AcDbEntity
  8
DV1_Default
  6
Continuous
 62
     7
 48
25.4
100
AcDbLine
 10
152.9459023825
 20
352.3172219931
 30
0.0
 11
178.8300436158
 21
352.3172219931
 31
0.0
  0
LINE
  5
149
330
65
100
AcDbEntity
  8
DV1_Default
  6
Continuous
 62
     7
 48
25.4
100
AcDbLine
 10
171.8026581608
 20
348.2632841925
 30
0.0
 11
171.8026581608
 21
352.3172219931
 31
0.0
  0
LINE
  5
14A
330
65
100
AcDbEntity
  8
DV1_Default
  6
Continuous
 62
     7
 48
25.4
100
AcDbLine
 10
171.8026581608
 20
250.7289499644
 30
0.0
 11
171.8026581608
 21
246.6750121638
 31
0.0
  0
LINE
  5
14B
330
65
100
AcDbEntity
  8
DV1_Default
  6
Continuous
 62
     7
 48
25.4
100
AcDbLine
 10
152.2459023825
 20
246.3975094701
 30
0.0
 11
152.5959023825
 21
246.7475094701
 31
0.0
  0
LINE
  5
14C
330
65
100
AcDbEntity
  8
DV1_Default
  6
Continuous
 62
     7
 48
25.4
100
AcDbLine
 10
152.9459023825
 20
246.6750121638
 30
0.0
 11
178.8300436158
 21
246.6750121638
 31
0.0
  0
LINE
  5
14D
330
65
100
AcDbEntity
  8
DV1_Default
  6
Continuous
 62
     7
 48
25.4
100
AcDbLine
 10
178.8300436158
 20
246.6750121638
 30
0.0
 11
197.8723071429
 21
246.6750121638
 31
0.0
  0
LINE
  5
14E
330
65
100
AcDbEntity
  8
DV1_Default
  6
Continuous
 62
     7
 48
25.4
100
AcDbLine
 10
197.8723071429
 20
246.6750121638
 30
0.0
 11
197.8723071429
 21
270.1539058722
 31
0.0
  0
LINE
  5
14F
330
65
100
AcDbEntity
  8
DV1_Default
  6
Continuous
 62
     7
 48
25.4
100
AcDbLine
 10
197.5223071429
 20
246.6750121638
 30
0.0
 11
197.5223071429
 21
270.1539058722
 31
0.0
  0
LINE
  5
150
330
65
100
AcDbEntity
  8
DV1_Default
  6
CENTER2
 62
     7
 48
25.4
100
AcDbLine
 10
266.2605384208
 20
299.4672219931
 30
0.0
 11
99.352368361
 21
299.4672219931
 31
0.0
  0
LINE
  5
151
330
65
100
AcDbEntity
  8
DV1_Default
  6
Continuous
 62
     7
 48
25.4
100
AcDbLine
 10
219.4411812871
 20
211.9672219931
 30
0.0
 11
219.4411812871
 21
299.4672219931
 31
0.0
  0
LINE
  5
152
330
65
100
AcDbEntity
  8
DV1_Default
  6
Continuous
 62
     7
 48
25.4
100
AcDbLine
 10
219.4411812871
 20
299.4672219931
 30
0.0
 11
219.4411812871
 21
337.2944323119
 31
0.0
  0
LINE
  5
153
330
65
100
AcDbEntity
  8
DV1_Default
  6
HIDDEN2
 62
     7
 48
25.4
100
AcDbLine
 10
219.4411812871
 20
337.2944323119
 30
0.0
 11
219.4411812871
 21
386.9672219931
 31
0.0
  0
LINE
  5
154
330
65
100
AcDbEntity
  8
DV1_Default
  6
Continuous
 62
     7
 48
25.4
100
AcDbLine
 10
219.4411812871
 20
337.2944323119
 30
0.0
 11
220.2811812871
 21
337.882606644
 31
0.0
  0
LINE
  5
155
330
65
100
AcDbEntity
  8
DV1_Default
  6
Continuous
 62
     7
 48
25.4
100
AcDbLine
 10
188.7811812871
 20
388.5422219931
 30
0.0
 11
188.7811812871
 21
384.5402068486
 31
0.0
  0
LINE
  5
156
330
65
100
AcDbEntity
  8
DV1_Default
  6
Continuous
 62
     7
 48
25.4
100
AcDbLine
 10
220.2811812871
 20
388.0172219931
 30
0.0
 11
221.3311812871
 21
389.0672219931
 31
0.0
  0
LINE
  5
157
330
65
100
AcDbEntity
  8
DV1_Default
  6
Continuous
 62
     7
 48
25.4
100
AcDbLine
 10
220.8061812871
 20
388.5422219931
 30
0.0
 11
220.8061812871
 21
325.3681447897
 31
0.0
  0
LINE
  5
158
330
65
100
AcDbEntity
  8
DV1_Default
  6
Continuous
 62
     7
 48
25.4
100
AcDbLine
 10
220.8061812871
 20
388.5422219931
 30
0.0
 11
188.7811812871
 21
388.5422219931
 31
0.0
  0
LINE
  5
159
330
65
100
AcDbEntity
  8
DV1_Default
  6
HIDDEN2
 62
     7
 48
25.4
100
AcDbLine
 10
188.7811812871
 20
388.3672219931
 30
0.0
 11
218.0411812871
 21
388.3672219931
 31
0.0
  0
ENDBLK
  5
15B
330
65
100
AcDbEntity
  8
0
100
AcDbBlockEnd
  0
BLOCK
  5
21E
330
15C
100
AcDbEntity
  8
0
100
AcDbBlockBegin
  2
SE1
 70
     0
 71
     0
 10
0.0
 20
0.0
 30
0.0
  3
SE1
  1

  0
LINE
  5
15F
330
15C
100
AcDbEntity
  8
DV2_Default
  6
Continuous
 62
     7
 48
25.4
100
AcDbLine
 10
475.4437529259
 20
386.1394293536
 30
0.0
 11
475.4437529259
 21
314.1720453303
 31
0.0
  0
LINE
  5
160
330
15C
100
AcDbEntity
  8
DV2_Default
  6
Continuous
 62
     7
 48
25.4
100
AcDbLine
 10
447.4437529259
 20
314.2104430877
 30
0.0
 11
447.4437529259
 21
386.1394293536
 31
0.0
  0
LINE
  5
161
330
15C
100
AcDbEntity
  8
DV2_Default
  6
Continuous
 62
     7
 48
25.4
100
AcDbLine
 10
447.4437529259
 20
386.1394293536
 30
0.0
 11
475.4437529259
 21
386.1394293536
 31
0.0
  0
LINE
  5
162
330
15C
100
AcDbEntity
  8
DV2_Default
  6
Continuous
 62
     7
 48
25.4
100
AcDbLine
 10
456.2270063593
 20
309.1394293536
 30
0.0
 11
447.4437529259
 21
314.2104430877
 31
0.0
  0
LINE
  5
163
330
15C
100
AcDbEntity
  8
DV2_Default
  6
Continuous
 62
     7
 48
25.4
100
AcDbLine
 10
466.7270063593
 20
309.1394293536
 30
0.0
 11
475.4437529259
 21
314.1720453303
 31
0.0
  0
CIRCLE
  5
164
330
15C
100
AcDbEntity
  8
DV2_Default
  6
Continuous
 62
     7
 48
25.4
100
AcDbCircle
 10
461.4437529259
 20
365.1644705286
 30
0.0
 40
6.65
  0
CIRCLE
  5
165
330
15C
100
AcDbEntity
  8
DV2_Default
  6
Continuous
 62
     7
 48
25.4
100
AcDbCircle
 10
461.4437529259
 20
344.1644705286
 30
0.0
 40
6.65
  0
CIRCLE
  5
166
330
15C
100
AcDbEntity
  8
DV2_Default
  6
Continuous
 62
     7
 48
25.4
100
AcDbCircle
 10
461.4437529259
 20
365.1644705286
 30
0.0
 40
6.3
  0
CIRCLE
  5
167
330
15C
100
AcDbEntity
  8
DV2_Default
  6
Continuous
 62
     7
 48
25.4
100
AcDbCircle
 10
461.4437529259
 20
344.1644705286
 30
0.0
 40
6.3
  0
LINE
  5
168
330
15C
100
AcDbEntity
  8
DV2_Default
  6
CENTER2
 62
     7
 48
25.4
100
AcDbLine
 10
452.3437529259
 20
344.1644705286
 30
0.0
 11
470.5437529259
 21
344.1644705286
 31
0.0
  0
LINE
  5
169
330
15C
100
AcDbEntity
  8
DV2_Default
  6
CENTER2
 62
     7
 48
25.4
100
AcDbLine
 10
452.3437529259
 20
365.1644705286
 30
0.0
 11
470.5437529259
 21
365.1644705286
 31
0.0
  0
LINE
  5
16A
330
15C
100
AcDbEntity
  8
DV2_Default
  6
Continuous
 62
     7
 48
25.4
100
AcDbLine
 10
461.4437529259
 20
369.3708276326
 30
0.0
 11
457.80644623
 21
367.2708276326
 31
0.0
  0
LINE
  5
16B
330
15C
100
AcDbEntity
  8
DV2_Default
  6
Continuous
 62
     7
 48
25.4
100
AcDbLine
 10
457.80644623
 20
367.2708276326
 30
0.0
 11
457.80644623
 21
363.0708276326
 31
0.0
  0
LINE
  5
16C
330
15C
100
AcDbEntity
  8
DV2_Default
  6
Continuous
 62
     7
 48
25.4
100
AcDbLine
 10
457.80644623
 20
363.0708276326
 30
0.0
 11
461.4437529259
 21
360.9708276326
 31
0.0
  0
LINE
  5
16D
330
15C
100
AcDbEntity
  8
DV2_Default
  6
Continuous
 62
     7
 48
25.4
100
AcDbLine
 10
461.4437529259
 20
360.9708276326
 30
0.0
 11
465.0810596218
 21
363.0708276326
 31
0.0
  0
LINE
  5
16E
330
15C
100
AcDbEntity
  8
DV2_Default
  6
Continuous
 62
     7
 48
25.4
100
AcDbLine
 10
465.0810596218
 20
363.0708276326
 30
0.0
 11
465.0810596218
 21
367.2708276326
 31
0.0
  0
LINE
  5
16F
330
15C
100
AcDbEntity
  8
DV2_Default
  6
Continuous
 62
     7
 48
25.4
100
AcDbLine
 10
465.0810596218
 20
367.2708276326
 30
0.0
 11
461.4437529259
 21
369.3708276326
 31
0.0
  0
LINE
  5
170
330
15C
100
AcDbEntity
  8
DV2_Default
  6
Continuous
 62
     7
 48
25.4
100
AcDbLine
 10
461.4437529259
 20
339.9535754091
 30
0.0
 11
457.80644623
 21
342.0535754091
 31
0.0
  0
LINE
  5
171
330
15C
100
AcDbEntity
  8
DV2_Default
  6
Continuous
 62
     7
 48
25.4
100
AcDbLine
 10
457.80644623
 20
342.0535754091
 30
0.0
 11
457.80644623
 21
346.2535754091
 31
0.0
  0
LINE
  5
172
330
15C
100
AcDbEntity
  8
DV2_Default
  6
Continuous
 62
     7
 48
25.4
100
AcDbLine
 10
457.80644623
 20
346.2535754091
 30
0.0
 11
461.4437529259
 21
348.3535754091
 31
0.0
  0
LINE
  5
173
330
15C
100
AcDbEntity
  8
DV2_Default
  6
Continuous
 62
     7
 48
25.4
100
AcDbLine
 10
461.4437529259
 20
348.3535754091
 30
0.0
 11
465.0810596218
 21
346.2535754091
 31
0.0
  0
LINE
  5
174
330
15C
100
AcDbEntity
  8
DV2_Default
  6
Continuous
 62
     7
 48
25.4
100
AcDbLine
 10
465.0810596218
 20
346.2535754091
 30
0.0
 11
465.0810596218
 21
342.0535754091
 31
0.0
  0
LINE
  5
175
330
15C
100
AcDbEntity
  8
DV2_Default
  6
Continuous
 62
     7
 48
25.4
100
AcDbLine
 10
465.0810596218
 20
342.0535754091
 30
0.0
 11
461.4437529259
 21
339.9535754091
 31
0.0
  0
ARC
  5
176
330
15C
100
AcDbEntity
  8
DV2_Default
  6
Continuous
 62
     7
 48
25.4
100
AcDbCircle
 10
461.4437529259
 20
295.8394293536
 30
0.0
 40
28.35
100
AcDbArc
 50
119.5924416711
 51
60.4075583289
  0
LINE
  5
177
330
15C
100
AcDbEntity
  8
DV2_Default
  6
Continuous
 62
     7
 48
25.4
100
AcDbLine
 10
376.4978767468
 20
263.7700027892
 30
0.0
 11
425.4547724656
 21
292.0352797111
 31
0.0
  0
LINE
  5
178
330
15C
100
AcDbEntity
  8
DV2_Default
  6
Continuous
 62
     7
 48
25.4
100
AcDbLine
 10
440.1547724656
 20
266.5741328399
 30
0.0
 11
391.1978767468
 21
238.3088559179
 31
0.0
  0
LINE
  5
179
330
15C
100
AcDbEntity
  8
DV2_Default
  6
Continuous
 62
     7
 48
25.4
100
AcDbLine
 10
391.1978767468
 20
238.3088559179
 30
0.0
 11
398.9664692636
 21
231.3139837973
 31
0.0
  0
LINE
  5
17A
330
15C
100
AcDbEntity
  8
DV2_Default
  6
Continuous
 62
     7
 48
25.4
100
AcDbLine
 10
376.4978767468
 20
263.7700027892
 30
0.0
 11
374.3244360525
 21
273.9952373207
 31
0.0
  0
LINE
  5
17B
330
15C
100
AcDbEntity
  8
DV2_Default
  6
Continuous
 62
     7
 48
25.4
100
AcDbLine
 10
427.7266460108
 20
282.8391716148
 30
0.0
 11
423.1766460108
 21
290.7200027892
 31
0.0
  0
LINE
  5
17C
330
15C
100
AcDbEntity
  8
DV2_Default
  6
Continuous
 62
     7
 48
25.4
100
AcDbLine
 10
433.3266460108
 20
273.1396870924
 30
0.0
 11
437.8766460108
 21
265.2588559179
 31
0.0
  0
ARC
  5
17D
330
15C
100
AcDbEntity
  8
DV2_Default
  6
Continuous
 62
     7
 48
25.4
100
AcDbCircle
 10
426.4826807173
 20
275.6546449028
 30
0.0
 40
5.599999999999994
100
AcDbArc
 50
300.0
 51
120.0
  0
ARC
  5
17E
330
15C
100
AcDbEntity
  8
DV2_Default
  6
Continuous
 62
     7
 48
25.4
100
AcDbCircle
 10
424.5716439842
 20
274.5513073305
 30
0.0
 40
6.506942592812056
100
AcDbArc
 50
333.4988337325
 51
86.5011662675
  0
LINE
  5
17F
330
15C
100
AcDbEntity
  8
DV2_Default
  6
Continuous
 62
     7
 48
25.4
100
AcDbLine
 10
441.1887847066
 20
264.7565359484
 30
0.0
 11
424.3976935042
 21
293.8395590255
 31
0.0
  0
LINE
  5
180
330
15C
100
AcDbEntity
  8
DV2_Default
  6
Continuous
 62
     7
 48
25.4
100
AcDbLine
 10
444.78769885
 20
262.6884736717
 30
0.0
 11
424.4061561077
 21
297.990341238
 31
0.0
  0
LINE
  5
181
330
15C
100
AcDbEntity
  8
DV2_Default
  6
Continuous
 62
     7
 48
25.4
100
AcDbLine
 10
374.3244360525
 20
273.9952373207
 30
0.0
 11
375.1498686632
 21
274.4718010607
 31
0.0
  0
LINE
  5
182
330
15C
100
AcDbEntity
  8
DV2_Default
  6
Continuous
 62
     7
 48
25.4
100
AcDbLine
 10
398.9664692636
 20
231.3139837973
 30
0.0
 11
399.7919018743
 21
231.7905475373
 31
0.0
  0
LINE
  5
183
330
15C
100
AcDbEntity
  8
DV2_Default
  6
Continuous
 62
     7
 48
25.4
100
AcDbLine
 10
423.635238434
 20
278.8604155952
 30
0.0
 11
427.835238434
 21
271.5858022034
 31
0.0
  0
LINE
  5
184
330
15C
100
AcDbEntity
  8
DV2_Default
  6
Continuous
 62
     7
 48
25.4
100
AcDbLine
 10
397.6181315189
 20
252.5233666381
 30
0.0
 11
392.0181315189
 21
262.2228511605
 31
0.0
  0
LINE
  5
185
330
15C
100
AcDbEntity
  8
DV2_Default
  6
Continuous
 62
     7
 48
25.4
100
AcDbLine
 10
421.7228028687
 20
279.3728511605
 30
0.0
 11
423.635238434
 21
278.8604155952
 31
0.0
  0
LINE
  5
186
330
15C
100
AcDbEntity
  8
DV2_Default
  6
Continuous
 62
     7
 48
25.4
100
AcDbLine
 10
427.835238434
 20
271.5858022034
 30
0.0
 11
427.3228028687
 21
269.6733666381
 31
0.0
  0
LINE
  5
187
330
15C
100
AcDbEntity
  8
DV2_Default
  6
Continuous
 62
     7
 48
25.4
100
AcDbLine
 10
376.4978767468
 20
263.7700027892
 30
0.0
 11
391.1978767468
 21
238.3088559179
 31
0.0
  0
CIRCLE
  5
188
330
15C
100
AcDbEntity
  8
DV2_Default
  6
Continuous
 62
     7
 48
25.4
100
AcDbCircle
 10
419.0668428248
 20
271.3731088993
 30
0.0
 40
4.2
  0
CIRCLE
  5
189
330
15C
100
AcDbEntity
  8
DV2_Default
  6
Continuous
 62
     7
 48
25.4
100
AcDbCircle
 10
400.8803093453
 20
260.8731088993
 30
0.0
 40
4.2
  0
CIRCLE
  5
18A
330
15C
100
AcDbEntity
  8
DV2_Default
  6
Continuous
 62
     7
 48
25.4
100
AcDbCircle
 10
419.0668428248
 20
271.3731088993
 30
0.0
 40
3.85
  0
CIRCLE
  5
18B
330
15C
100
AcDbEntity
  8
DV2_Default
  6
Continuous
 62
     7
 48
25.4
100
AcDbCircle
 10
400.8803093453
 20
260.8731088993
 30
0.0
 40
3.85
  0
LINE
  5
18C
330
15C
100
AcDbEntity
  8
DV2_Default
  6
Continuous
 62
     7
 48
25.4
100
AcDbLine
 10
427.7266460108
 20
282.8391716148
 30
0.0
 11
381.0478767468
 21
255.8891716148
 31
0.0
  0
LINE
  5
18D
330
15C
100
AcDbEntity
  8
DV2_Default
  6
Continuous
 62
     7
 48
25.4
100
AcDbLine
 10
433.3266460108
 20
273.1396870924
 30
0.0
 11
386.6478767468
 21
246.1896870924
 31
0.0
  0
LINE
  5
18E
330
15C
100
AcDbEntity
  8
DV2_Default
  6
Continuous
 62
     7
 48
25.4
100
AcDbLine
 10
531.689629105
 20
238.3088559179
 30
0.0
 11
482.7327333861
 21
266.5741328399
 31
0.0
  0
LINE
  5
18F
330
15C
100
AcDbEntity
  8
DV2_Default
  6
Continuous
 62
     7
 48
25.4
100
AcDbLine
 10
497.4327333861
 20
292.0352797111
 30
0.0
 11
546.389629105
 21
263.7700027892
 31
0.0
  0
LINE
  5
190
330
15C
100
AcDbEntity
  8
DV2_Default
  6
Continuous
 62
     7
 48
25.4
100
AcDbLine
 10
546.389629105
 20
263.7700027892
 30
0.0
 11
548.5630697992
 21
273.9952373207
 31
0.0
  0
LINE
  5
191
330
15C
100
AcDbEntity
  8
DV2_Default
  6
Continuous
 62
     7
 48
25.4
100
AcDbLine
 10
531.689629105
 20
238.3088559179
 30
0.0
 11
523.9210365882
 21
231.3139837973
 31
0.0
  0
LINE
  5
192
330
15C
100
AcDbEntity
  8
DV2_Default
  6
Continuous
 62
     7
 48
25.4
100
AcDbLine
 10
489.560859841
 20
273.1396870924
 30
0.0
 11
485.010859841
 21
265.2588559179
 31
0.0
  0
LINE
  5
193
330
15C
100
AcDbEntity
  8
DV2_Default
  6
Continuous
 62
     7
 48
25.4
100
AcDbLine
 10
495.160859841
 20
282.8391716148
 30
0.0
 11
499.710859841
 21
290.7200027892
 31
0.0
  0
ARC
  5
194
330
15C
100
AcDbEntity
  8
DV2_Default
  6
Continuous
 62
     7
 48
25.4
100
AcDbCircle
 10
496.4048251345
 20
275.6546449028
 30
0.0
 40
5.599999999999994
100
AcDbArc
 50
60.0
 51
240.0
  0
ARC
  5
195
330
15C
100
AcDbEntity
  8
DV2_Default
  6
Continuous
 62
     7
 48
25.4
100
AcDbCircle
 10
498.3158618676
 20
274.5513073305
 30
0.0
 40
6.506942592812056
100
AcDbArc
 50
93.4988337325
 51
206.5011662675
  0
LINE
  5
196
330
15C
100
AcDbEntity
  8
DV2_Default
  6
Continuous
 62
     7
 48
25.4
100
AcDbLine
 10
498.4898123475
 20
293.8395590255
 30
0.0
 11
481.6987211451
 21
264.7565359484
 31
0.0
  0
LINE
  5
197
330
15C
100
AcDbEntity
  8
DV2_Default
  6
Continuous
 62
     7
 48
25.4
100
AcDbLine
 10
498.481349744
 20
297.990341238
 30
0.0
 11
478.0998070018
 21
262.6884736717
 31
0.0
  0
LINE
  5
198
330
15C
100
AcDbEntity
  8
DV2_Default
  6
Continuous
 62
     7
 48
25.4
100
AcDbLine
 10
523.9210365882
 20
231.3139837973
 30
0.0
 11
523.0956039774
 21
231.7905475373
 31
0.0
  0
LINE
  5
199
330
15C
100
AcDbEntity
  8
DV2_Default
  6
Continuous
 62
     7
 48
25.4
100
AcDbLine
 10
548.5630697992
 20
273.9952373207
 30
0.0
 11
547.7376371885
 21
274.4718010607
 31
0.0
  0
LINE
  5
19A
330
15C
100
AcDbEntity
  8
DV2_Default
  6
Continuous
 62
     7
 48
25.4
100
AcDbLine
 10
495.0522674178
 20
271.5858022034
 30
0.0
 11
499.2522674178
 21
278.8604155952
 31
0.0
  0
LINE
  5
19B
330
15C
100
AcDbEntity
  8
DV2_Default
  6
Continuous
 62
     7
 48
25.4
100
AcDbLine
 10
530.8693743329
 20
262.2228511605
 30
0.0
 11
525.2693743329
 21
252.5233666381
 31
0.0
  0
LINE
  5
19C
330
15C
100
AcDbEntity
  8
DV2_Default
  6
Continuous
 62
     7
 48
25.4
100
AcDbLine
 10
495.5647029831
 20
269.6733666381
 30
0.0
 11
495.0522674178
 21
271.5858022034
 31
0.0
  0
LINE
  5
19D
330
15C
100
AcDbEntity
  8
DV2_Default
  6
Continuous
 62
     7
 48
25.4
100
AcDbLine
 10
499.2522674178
 20
278.8604155952
 30
0.0
 11
501.1647029831
 21
279.3728511605
 31
0.0
  0
LINE
  5
19E
330
15C
100
AcDbEntity
  8
DV2_Default
  6
Continuous
 62
     7
 48
25.4
100
AcDbLine
 10
531.689629105
 20
238.3088559179
 30
0.0
 11
546.389629105
 21
263.7700027892
 31
0.0
  0
CIRCLE
  5
19F
330
15C
100
AcDbEntity
  8
DV2_Default
  6
Continuous
 62
     7
 48
25.4
100
AcDbCircle
 10
503.8206630269
 20
271.3731088993
 30
0.0
 40
4.2
  0
CIRCLE
  5
1A0
330
15C
100
AcDbEntity
  8
DV2_Default
  6
Continuous
 62
     7
 48
25.4
100
AcDbCircle
 10
522.0071965064
 20
260.8731088993
 30
0.0
 40
4.2
  0
CIRCLE
  5
1A1
330
15C
100
AcDbEntity
  8
DV2_Default
  6
Continuous
 62
     7
 48
25.4
100
AcDbCircle
 10
503.8206630269
 20
271.3731088993
 30
0.0
 40
3.85
  0
CIRCLE
  5
1A2
330
15C
100
AcDbEntity
  8
DV2_Default
  6
Continuous
 62
     7
 48
25.4
100
AcDbCircle
 10
522.0071965064
 20
260.8731088993
 30
0.0
 40
3.85
  0
LINE
  5
1A3
330
15C
100
AcDbEntity
  8
DV2_Default
  6
Continuous
 62
     7
 48
25.4
100
AcDbLine
 10
489.560859841
 20
273.1396870924
 30
0.0
 11
536.239629105
 21
246.1896870924
 31
0.0
  0
LINE
  5
1A4
330
15C
100
AcDbEntity
  8
DV2_Default
  6
Continuous
 62
     7
 48
25.4
100
AcDbLine
 10
495.160859841
 20
282.8391716148
 30
0.0
 11
541.839629105
 21
255.8891716148
 31
0.0
  0
LINE
  5
1A5
330
15C
100
AcDbEntity
  8
DV2_Default
  6
CENTER2
 62
     7
 48
25.4
100
AcDbLine
 10
501.0206630269
 20
266.5233666381
 30
0.0
 11
506.6206630269
 21
276.2228511605
 31
0.0
  0
LINE
  5
1A6
330
15C
100
AcDbEntity
  8
DV2_Default
  6
CENTER2
 62
     7
 48
25.4
100
AcDbLine
 10
519.2071965064
 20
256.0233666381
 30
0.0
 11
524.7211674632
 21
265.5738444868
 31
0.0
  0
LINE
  5
1A7
330
15C
100
AcDbEntity
  8
DV2_Default
  6
CENTER2
 62
     7
 48
25.4
100
AcDbLine
 10
421.8668428248
 20
266.5233666381
 30
0.0
 11
416.2668428248
 21
276.2228511605
 31
0.0
  0
LINE
  5
1A8
330
15C
100
AcDbEntity
  8
DV2_Default
  6
CENTER2
 62
     7
 48
25.4
100
AcDbLine
 10
403.6803093453
 20
256.0233666381
 30
0.0
 11
398.1663383885
 21
265.5738444868
 31
0.0
  0
LINE
  5
1A9
330
15C
100
AcDbEntity
  8
DV2_Default
  6
Continuous
 62
     7
 48
25.4
100
AcDbLine
 10
460.745090668
 20
263.9768649189
 30
0.0
 11
460.045090668
 21
262.7644293536
 31
0.0
  0
LINE
  5
1AA
330
15C
100
AcDbEntity
  8
DV2_Default
  6
Continuous
 62
     7
 48
25.4
100
AcDbLine
 10
460.045090668
 20
262.7644293536
 30
0.0
 11
460.745090668
 21
261.5519937883
 31
0.0
  0
LINE
  5
1AB
330
15C
100
AcDbEntity
  8
DV2_Default
  6
Continuous
 62
     7
 48
25.4
100
AcDbLine
 10
460.745090668
 20
261.5519937883
 30
0.0
 11
462.145090668
 21
261.5519937883
 31
0.0
  0
LINE
  5
1AC
330
15C
100
AcDbEntity
  8
DV2_Default
  6
Continuous
 62
     7
 48
25.4
100
AcDbLine
 10
462.145090668
 20
261.5519937883
 30
0.0
 11
462.845090668
 21
262.7644293536
 31
0.0
  0
LINE
  5
1AD
330
15C
100
AcDbEntity
  8
DV2_Default
  6
Continuous
 62
     7
 48
25.4
100
AcDbLine
 10
462.845090668
 20
262.7644293536
 30
0.0
 11
462.145090668
 21
263.9768649189
 31
0.0
  0
LINE
  5
1AE
330
15C
100
AcDbEntity
  8
DV2_Default
  6
Continuous
 62
     7
 48
25.4
100
AcDbLine
 10
460.745090668
 20
263.9768649189
 30
0.0
 11
462.145090668
 21
263.9768649189
 31
0.0
  0
CIRCLE
  5
1AF
330
15C
100
AcDbEntity
  8
DV2_Default
  6
Continuous
 62
     7
 48
25.4
100
AcDbCircle
 10
461.4437529259
 20
262.7644293536
 30
0.0
 40
3.5
  0
CIRCLE
  5
1B0
330
15C
100
AcDbEntity
  8
DV2_Default
  6
Continuous
 62
     7
 48
25.4
100
AcDbCircle
 10
461.4437529259
 20
262.7644293536
 30
0.0
 40
3.15
  0
LINE
  5
1B1
330
15C
100
AcDbEntity
  8
DV2_Default
  6
Continuous
 62
     7
 48
25.4
100
AcDbLine
 10
456.2270063593
 20
309.1394293536
 30
0.0
 11
461.4437529259
 21
309.1394293536
 31
0.0
  0
LINE
  5
1B2
330
15C
100
AcDbEntity
  8
DV2_Default
  6
Continuous
 62
     7
 48
25.4
100
AcDbLine
 10
461.4437529259
 20
309.1394293536
 30
0.0
 11
466.7270063593
 21
309.1394293536
 31
0.0
  0
LINE
  5
1B3
330
15C
100
AcDbEntity
  8
DV2_Default
  6
Continuous
 62
     7
 48
25.4
100
AcDbLine
 10
476.1437529259
 20
385.4394293536
 30
0.0
 11
476.1437529259
 21
328.9221930869
 31
0.0
  0
LINE
  5
1B4
330
15C
100
AcDbEntity
  8
DV2_Default
  6
Continuous
 62
     7
 48
25.4
100
AcDbLine
 10
446.7437529259
 20
328.9221930869
 30
0.0
 11
446.7437529259
 21
385.4394293536
 31
0.0
  0
LINE
  5
1B5
330
15C
100
AcDbEntity
  8
DV2_Default
  6
Continuous
 62
     7
 48
25.4
100
AcDbLine
 10
446.7437529259
 20
385.4394293536
 30
0.0
 11
436.8017197148
 21
382.2090669427
 31
0.0
  0
LINE
  5
1B6
330
15C
100
AcDbEntity
  8
DV2_Default
  6
Continuous
 62
     7
 48
25.4
100
AcDbLine
 10
476.1437529259
 20
385.4394293536
 30
0.0
 11
486.085786137
 21
382.2090669427
 31
0.0
  0
LINE
  5
1B7
330
15C
100
AcDbEntity
  8
DV2_Default
  6
Continuous
 62
     7
 48
25.4
100
AcDbLine
 10
444.6526617235
 20
328.9221930869
 30
0.0
 11
447.4437529259
 21
328.9221930869
 31
0.0
  0
LINE
  5
1B8
330
15C
100
AcDbEntity
  8
DV2_Default
  6
Continuous
 62
     7
 48
25.4
100
AcDbLine
 10
441.0622101836
 20
326.839473151
 30
0.0
 11
447.4437529259
 21
326.839473151
 31
0.0
  0
LINE
  5
1B9
330
15C
100
AcDbEntity
  8
DV2_Default
  6
Continuous
 62
     7
 48
25.4
100
AcDbLine
 10
486.085786137
 20
382.2090669427
 30
0.0
 11
486.085786137
 21
381.2559394627
 31
0.0
  0
LINE
  5
1BA
330
15C
100
AcDbEntity
  8
DV2_Default
  6
Continuous
 62
     7
 48
25.4
100
AcDbLine
 10
436.8017197148
 20
382.2090669427
 30
0.0
 11
436.8017197148
 21
381.2559394627
 31
0.0
  0
LINE
  5
1BB
330
15C
100
AcDbEntity
  8
DV2_Default
  6
Continuous
 62
     7
 48
25.4
100
AcDbLine
 10
447.4437529259
 20
385.4394293536
 30
0.0
 11
446.7437529259
 21
385.4394293536
 31
0.0
  0
LINE
  5
1BC
330
15C
100
AcDbEntity
  8
DV2_Default
  6
Continuous
 62
     7
 48
25.4
100
AcDbLine
 10
475.4437529259
 20
328.9221930869
 30
0.0
 11
478.2348441283
 21
328.9221930869
 31
0.0
  0
LINE
  5
1BD
330
15C
100
AcDbEntity
  8
DV2_Default
  6
Continuous
 62
     7
 48
25.4
100
AcDbLine
 10
475.4437529259
 20
326.839473151
 30
0.0
 11
481.8252956681
 21
326.839473151
 31
0.0
  0
ARC
  5
1BE
330
15C
100
AcDbEntity
  8
DV2_Default
  6
Continuous
 62
     7
 48
25.4
100
AcDbCircle
 10
461.4437529259
 20
295.8394293536
 30
0.0
 40
37.09999999999999
100
AcDbArc
 50
353.342484405
 51
66.657515595
  0
LINE
  5
1BF
330
15C
100
AcDbEntity
  8
DV2_Default
  6
Continuous
 62
     7
 48
25.4
100
AcDbLine
 10
476.1437529259
 20
385.4394293536
 30
0.0
 11
475.4437529259
 21
385.4394293536
 31
0.0
  0
ARC
  5
1C0
330
15C
100
AcDbEntity
  8
DV2_Default
  6
Continuous
 62
     7
 48
25.4
100
AcDbCircle
 10
461.4437529259
 20
295.8394293536
 30
0.0
 40
88.89999999999999
100
AcDbArc
 50
339.517818872
 51
80.482181128
  0
ARC
  5
1C1
330
15C
100
AcDbEntity
  8
DV2_Default
  6
Continuous
 62
     7
 48
25.4
100
AcDbCircle
 10
461.4437529259
 20
295.8394293536
 30
0.0
 40
88.89999999999999
100
AcDbArc
 50
99.517818872
 51
200.482181128
  0
ARC
  5
1C2
330
15C
100
AcDbEntity
  8
DV2_Default
  6
Continuous
 62
     7
 48
25.4
100
AcDbCircle
 10
461.4437529259
 20
295.8394293536
 30
0.0
 40
88.89999999999999
100
AcDbArc
 50
219.517818872
 51
320.482181128
  0
ARC
  5
1C3
330
15C
100
AcDbEntity
  8
DV2_Default
  6
Continuous
 62
     7
 48
25.4
100
AcDbCircle
 10
461.4437529259
 20
295.8394293536
 30
0.0
 40
15.75
100
AcDbArc
 50
115.5491312494
 51
64.3042975324
  0
LINE
  5
1C4
330
15C
100
AcDbEntity
  8
DV2_Default
  6
CENTER2
 62
     7
 48
25.4
100
AcDbLine
 10
461.4437529259
 20
298.2894293536
 30
0.0
 11
461.4437529259
 21
196.966742626
 31
0.0
  0
LINE
  5
1C5
330
15C
100
AcDbEntity
  8
DV2_Default
  6
CENTER2
 62
     7
 48
25.4
100
AcDbLine
 10
461.4437529259
 20
293.3894293536
 30
0.0
 11
461.4437529259
 21
395.1343709128
 31
0.0
  0
CIRCLE
  5
1C6
330
15C
100
AcDbEntity
  8
DV2_Default
  6
Continuous
 62
     7
 48
25.4
100
AcDbCircle
 10
461.4437529259
 20
235.8494293536
 30
0.0
 40
8.749999999999998
  0
ARC
  5
1C7
330
15C
100
AcDbEntity
  8
DV2_Default
  6
CENTER2
 62
     7
 48
25.4
100
AcDbCircle
 10
461.4437529259
 20
295.8394293536
 30
0.0
 40
59.98999999999999
100
AcDbArc
 50
261.6355468977
 51
278.3644531023
  0
CIRCLE
  5
1C8
330
15C
100
AcDbEntity
  8
DV2_Default
  6
Continuous
 62
     7
 48
25.4
100
AcDbCircle
 10
461.4437529259
 20
235.8494293536
 30
0.0
 40
8.4
  0
LINE
  5
1C9
330
15C
100
AcDbEntity
  8
DV2_Default
  6
Continuous
 62
     7
 48
25.4
100
AcDbLine
 10
461.4437529259
 20
241.7994293536
 30
0.0
 11
456.2909017733
 21
238.8244293536
 31
0.0
  0
LINE
  5
1CA
330
15C
100
AcDbEntity
  8
DV2_Default
  6
Continuous
 62
     7
 48
25.4
100
AcDbLine
 10
456.2909017733
 20
238.8244293536
 30
0.0
 11
456.2909017733
 21
232.8744293536
 31
0.0
  0
LINE
  5
1CB
330
15C
100
AcDbEntity
  8
DV2_Default
  6
Continuous
 62
     7
 48
25.4
100
AcDbLine
 10
456.2909017733
 20
232.8744293536
 30
0.0
 11
461.4437529259
 21
229.8994293536
 31
0.0
  0
LINE
  5
1CC
330
15C
100
AcDbEntity
  8
DV2_Default
  6
Continuous
 62
     7
 48
25.4
100
AcDbLine
 10
461.4437529259
 20
229.8994293536
 30
0.0
 11
466.5966040784
 21
232.8744293536
 31
0.0
  0
LINE
  5
1CD
330
15C
100
AcDbEntity
  8
DV2_Default
  6
Continuous
 62
     7
 48
25.4
100
AcDbLine
 10
466.5966040784
 20
232.8744293536
 30
0.0
 11
466.5966040784
 21
238.8244293536
 31
0.0
  0
LINE
  5
1CE
330
15C
100
AcDbEntity
  8
DV2_Default
  6
Continuous
 62
     7
 48
25.4
100
AcDbLine
 10
466.5966040784
 20
238.8244293536
 30
0.0
 11
461.4437529259
 21
241.7994293536
 31
0.0
  0
ARC
  5
1CF
330
15C
100
AcDbEntity
  8
DV2_Default
  6
Continuous
 62
     7
 48
25.4
100
AcDbCircle
 10
461.4437529259
 20
295.8394293536
 30
0.0
 40
37.09999999999999
100
AcDbArc
 50
113.342484405
 51
186.657515595
  0
ARC
  5
1D0
330
15C
100
AcDbEntity
  8
DV2_Default
  6
CENTER2
 62
     7
 48
25.4
100
AcDbCircle
 10
461.4437529259
 20
295.8394293536
 30
0.0
 40
33.075
100
AcDbArc
 50
263.9341220898
 51
276.0658779102
  0
ARC
  5
1D1
330
15C
100
AcDbEntity
  8
DV2_Default
  6
Continuous
 62
     7
 48
25.4
100
AcDbCircle
 10
461.4437529259
 20
295.8394293536
 30
0.0
 40
37.09999999999999
100
AcDbArc
 50
233.342484405
 51
306.657515595
  0
LINE
  5
1D2
330
15C
100
AcDbEntity
  8
DV2_Default
  6
CENTER2
 62
     7
 48
25.4
100
AcDbLine
 10
461.4437529259
 20
295.8394293536
 30
0.0
 11
373.5864160072
 21
245.1149722333
 31
0.0
  0
LINE
  5
1D3
330
15C
100
AcDbEntity
  8
DV2_Default
  6
CENTER2
 62
     7
 48
25.4
100
AcDbLine
 10
461.4437529259
 20
295.8394293536
 30
0.0
 11
545.662098554
 21
247.2159448345
 31
0.0
  0
LINE
  5
1D4
330
15C
100
AcDbEntity
  8
DV2_Default
  6
Continuous
 62
     7
 48
25.4
100
AcDbLine
 10
434.1992938246
 20
312.3757708349
 30
0.0
 11
433.4992938246
 21
313.5882064002
 31
0.0
  0
LINE
  5
1D5
330
15C
100
AcDbEntity
  8
DV2_Default
  6
Continuous
 62
     7
 48
25.4
100
AcDbLine
 10
433.4992938246
 20
313.5882064002
 30
0.0
 11
432.0992938246
 21
313.5882064002
 31
0.0
  0
LINE
  5
1D6
330
15C
100
AcDbEntity
  8
DV2_Default
  6
Continuous
 62
     7
 48
25.4
100
AcDbLine
 10
432.0992938246
 20
313.5882064002
 30
0.0
 11
431.3992938246
 21
312.3757708349
 31
0.0
  0
LINE
  5
1D7
330
15C
100
AcDbEntity
  8
DV2_Default
  6
Continuous
 62
     7
 48
25.4
100
AcDbLine
 10
431.3992938246
 20
312.3757708349
 30
0.0
 11
432.0992938246
 21
311.1633352696
 31
0.0
  0
LINE
  5
1D8
330
15C
100
AcDbEntity
  8
DV2_Default
  6
Continuous
 62
     7
 48
25.4
100
AcDbLine
 10
432.0992938246
 20
311.1633352696
 30
0.0
 11
433.4992938246
 21
311.1633352696
 31
0.0
  0
LINE
  5
1D9
330
15C
100
AcDbEntity
  8
DV2_Default
  6
Continuous
 62
     7
 48
25.4
100
AcDbLine
 10
434.1992938246
 20
312.3757708349
 30
0.0
 11
433.4992938246
 21
311.1633352696
 31
0.0
  0
CIRCLE
  5
1DA
330
15C
100
AcDbEntity
  8
DV2_Default
  6
Continuous
 62
     7
 48
25.4
100
AcDbCircle
 10
432.7999626957
 20
312.3769293536
 30
0.0
 40
3.5
  0
CIRCLE
  5
1DB
330
15C
100
AcDbEntity
  8
DV2_Default
  6
Continuous
 62
     7
 48
25.4
100
AcDbCircle
 10
432.7999626957
 20
312.3769293536
 30
0.0
 40
3.15
  0
CIRCLE
  5
1DC
330
15C
100
AcDbEntity
  8
DV2_Default
  6
Continuous
 62
     7
 48
25.4
100
AcDbCircle
 10
409.4908889528
 20
325.8344293536
 30
0.0
 40
8.749999999999998
  0
ARC
  5
1DD
330
15C
100
AcDbEntity
  8
DV2_Default
  6
CENTER2
 62
     7
 48
25.4
100
AcDbCircle
 10
461.4437529259
 20
295.8394293536
 30
0.0
 40
59.98999999999999
100
AcDbArc
 50
141.6355468977
 51
158.3644531023
  0
LINE
  5
1DE
330
15C
100
AcDbEntity
  8
DV2_Default
  6
CENTER2
 62
     7
 48
25.4
100
AcDbLine
 10
417.068611236
 20
321.4594293536
 30
0.0
 11
401.9131666697
 21
330.2094293536
 31
0.0
  0
CIRCLE
  5
1DF
330
15C
100
AcDbEntity
  8
DV2_Default
  6
Continuous
 62
     7
 48
25.4
100
AcDbCircle
 10
409.4908889528
 20
325.8344293536
 30
0.0
 40
8.4
  0
LINE
  5
1E0
330
15C
100
AcDbEntity
  8
DV2_Default
  6
Continuous
 62
     7
 48
25.4
100
AcDbLine
 10
414.6437401054
 20
322.8594293536
 30
0.0
 11
414.6437401054
 21
328.8094293536
 31
0.0
  0
LINE
  5
1E1
330
15C
100
AcDbEntity
  8
DV2_Default
  6
Continuous
 62
     7
 48
25.4
100
AcDbLine
 10
414.6437401054
 20
328.8094293536
 30
0.0
 11
409.4908889528
 21
331.7844293536
 31
0.0
  0
LINE
  5
1E2
330
15C
100
AcDbEntity
  8
DV2_Default
  6
Continuous
 62
     7
 48
25.4
100
AcDbLine
 10
409.4908889528
 20
331.7844293536
 30
0.0
 11
404.3380378003
 21
328.8094293536
 31
0.0
  0
LINE
  5
1E3
330
15C
100
AcDbEntity
  8
DV2_Default
  6
Continuous
 62
     7
 48
25.4
100
AcDbLine
 10
404.3380378003
 20
328.8094293536
 30
0.0
 11
404.3380378003
 21
322.8594293536
 31
0.0
  0
LINE
  5
1E4
330
15C
100
AcDbEntity
  8
DV2_Default
  6
Continuous
 62
     7
 48
25.4
100
AcDbLine
 10
404.3380378003
 20
322.8594293536
 30
0.0
 11
409.4908889528
 21
319.8844293536
 31
0.0
  0
LINE
  5
1E5
330
15C
100
AcDbEntity
  8
DV2_Default
  6
Continuous
 62
     7
 48
25.4
100
AcDbLine
 10
409.4908889528
 20
319.8844293536
 30
0.0
 11
414.6437401054
 21
322.8594293536
 31
0.0
  0
ARC
  5
1E6
330
15C
100
AcDbEntity
  8
DV2_Default
  6
CENTER2
 62
     7
 48
25.4
100
AcDbCircle
 10
461.4437529259
 20
295.8394293536
 30
0.0
 40
33.075
100
AcDbArc
 50
143.9341220898
 51
156.0658779102
  0
LINE
  5
1E7
330
15C
100
AcDbEntity
  8
DV2_Default
  6
Continuous
 62
     7
 48
25.4
100
AcDbLine
 10
489.386874285
 20
311.1656523069
 30
0.0
 11
490.786874285
 21
311.1656523069
 31
0.0
  0
LINE
  5
1E8
330
15C
100
AcDbEntity
  8
DV2_Default
  6
Continuous
 62
     7
 48
25.4
100
AcDbLine
 10
490.786874285
 20
311.1656523069
 30
0.0
 11
491.486874285
 21
312.3780878722
 31
0.0
  0
LINE
  5
1E9
330
15C
100
AcDbEntity
  8
DV2_Default
  6
Continuous
 62
     7
 48
25.4
100
AcDbLine
 10
491.486874285
 20
312.3780878722
 30
0.0
 11
490.786874285
 21
313.5905234375
 31
0.0
  0
LINE
  5
1EA
330
15C
100
AcDbEntity
  8
DV2_Default
  6
Continuous
 62
     7
 48
25.4
100
AcDbLine
 10
490.786874285
 20
313.5905234375
 30
0.0
 11
489.386874285
 21
313.5905234375
 31
0.0
  0
LINE
  5
1EB
330
15C
100
AcDbEntity
  8
DV2_Default
  6
Continuous
 62
     7
 48
25.4
100
AcDbLine
 10
489.386874285
 20
313.5905234375
 30
0.0
 11
488.686874285
 21
312.3780878722
 31
0.0
  0
LINE
  5
1EC
330
15C
100
AcDbEntity
  8
DV2_Default
  6
Continuous
 62
     7
 48
25.4
100
AcDbLine
 10
489.386874285
 20
311.1656523069
 30
0.0
 11
488.686874285
 21
312.3780878722
 31
0.0
  0
CIRCLE
  5
1ED
330
15C
100
AcDbEntity
  8
DV2_Default
  6
Continuous
 62
     7
 48
25.4
100
AcDbCircle
 10
490.087543156
 20
312.3769293536
 30
0.0
 40
3.5
  0
CIRCLE
  5
1EE
330
15C
100
AcDbEntity
  8
DV2_Default
  6
Continuous
 62
     7
 48
25.4
100
AcDbCircle
 10
490.087543156
 20
312.3769293536
 30
0.0
 40
3.15
  0
CIRCLE
  5
1EF
330
15C
100
AcDbEntity
  8
DV2_Default
  6
Continuous
 62
     7
 48
25.4
100
AcDbCircle
 10
513.3966168989
 20
325.8344293536
 30
0.0
 40
8.749999999999998
  0
ARC
  5
1F0
330
15C
100
AcDbEntity
  8
DV2_Default
  6
CENTER2
 62
     7
 48
25.4
100
AcDbCircle
 10
461.4437529259
 20
295.8394293536
 30
0.0
 40
59.98999999999999
100
AcDbArc
 50
21.6355468977
 51
38.3644531023
  0
LINE
  5
1F1
330
15C
100
AcDbEntity
  8
DV2_Default
  6
CENTER2
 62
     7
 48
25.4
100
AcDbLine
 10
505.8188946158
 20
321.4594293536
 30
0.0
 11
520.974339182
 21
330.2094293536
 31
0.0
  0
CIRCLE
  5
1F2
330
15C
100
AcDbEntity
  8
DV2_Default
  6
Continuous
 62
     7
 48
25.4
100
AcDbCircle
 10
513.3966168989
 20
325.8344293536
 30
0.0
 40
8.4
  0
LINE
  5
1F3
330
15C
100
AcDbEntity
  8
DV2_Default
  6
Continuous
 62
     7
 48
25.4
100
AcDbLine
 10
508.2437657464
 20
322.8594293536
 30
0.0
 11
513.3966168989
 21
319.8844293536
 31
0.0
  0
LINE
  5
1F4
330
15C
100
AcDbEntity
  8
DV2_Default
  6
Continuous
 62
     7
 48
25.4
100
AcDbLine
 10
513.3966168989
 20
319.8844293536
 30
0.0
 11
518.5494680514
 21
322.8594293536
 31
0.0
  0
LINE
  5
1F5
330
15C
100
AcDbEntity
  8
DV2_Default
  6
Continuous
 62
     7
 48
25.4
100
AcDbLine
 10
518.5494680514
 20
322.8594293536
 30
0.0
 11
518.5494680514
 21
328.8094293536
 31
0.0
  0
LINE
  5
1F6
330
15C
100
AcDbEntity
  8
DV2_Default
  6
Continuous
 62
     7
 48
25.4
100
AcDbLine
 10
518.5494680514
 20
328.8094293536
 30
0.0
 11
513.3966168989
 21
331.7844293536
 31
0.0
  0
LINE
  5
1F7
330
15C
100
AcDbEntity
  8
DV2_Default
  6
Continuous
 62
     7
 48
25.4
100
AcDbLine
 10
513.3966168989
 20
331.7844293536
 30
0.0
 11
508.2437657464
 21
328.8094293536
 31
0.0
  0
LINE
  5
1F8
330
15C
100
AcDbEntity
  8
DV2_Default
  6
Continuous
 62
     7
 48
25.4
100
AcDbLine
 10
508.2437657464
 20
328.8094293536
 30
0.0
 11
508.2437657464
 21
322.8594293536
 31
0.0
  0
ARC
  5
1F9
330
15C
100
AcDbEntity
  8
DV2_Default
  6
CENTER2
 62
     7
 48
25.4
100
AcDbCircle
 10
461.4437529259
 20
295.8394293536
 30
0.0
 40
33.075
100
AcDbArc
 50
23.9341220898
 51
36.0658779102
  0
LINE
  5
1FA
330
15C
100
AcDbEntity
  8
DV2_Default
  6
CENTER2
 62
     7
 48
25.4
100
AcDbLine
 10
461.4437529259
 20
295.8394293536
 30
0.0
 11
363.4437529259
 21
295.8394293536
 31
0.0
  0
LINE
  5
1FB
330
15C
100
AcDbEntity
  8
DV2_Default
  6
CENTER2
 62
     7
 48
25.4
100
AcDbLine
 10
461.4437529259
 20
295.8394293536
 30
0.0
 11
559.4437529259
 21
295.8394293536
 31
0.0
  0
LINE
  5
1FC
330
15C
100
AcDbEntity
  8
DV2_Default
  6
CENTER2
 62
     7
 48
25.4
100
AcDbLine
 10
435.8310516089
 20
310.6269293536
 30
0.0
 11
429.7688737825
 21
314.1269293536
 31
0.0
  0
LINE
  5
1FD
330
15C
100
AcDbEntity
  8
DV2_Default
  6
CENTER2
 62
     7
 48
25.4
100
AcDbLine
 10
487.0564542428
 20
310.6269293536
 30
0.0
 11
493.1186320693
 21
314.1269293536
 31
0.0
  0
LINE
  5
1FE
330
15C
100
AcDbEntity
  8
DV2_Default
  6
CENTER2
 62
     7
 48
25.4
100
AcDbLine
 10
461.4437529259
 20
249.1494293536
 30
0.0
 11
461.4437529259
 21
253.3494293536
 31
0.0
  0
LINE
  5
1FF
330
15C
100
AcDbEntity
  8
DV2_Default
  6
CENTER2
 62
     7
 48
25.4
100
AcDbLine
 10
461.4437529259
 20
249.1494293536
 30
0.0
 11
461.4437529259
 21
244.9494293536
 31
0.0
  0
CIRCLE
  5
200
330
15C
100
AcDbEntity
  8
DV2_Default
  6
HIDDEN2
 62
     7
 48
25.4
100
AcDbCircle
 10
449.35949171
 20
250.7403525241
 30
0.0
 40
4.2
  0
CIRCLE
  5
201
330
15C
100
AcDbEntity
  8
DV2_Default
  6
HIDDEN2
 62
     7
 48
25.4
100
AcDbCircle
 10
449.35949171
 20
250.7403525241
 30
0.0
 40
3.85
  0
LINE
  5
202
330
15C
100
AcDbEntity
  8
DV2_Default
  6
CENTER2
 62
     7
 48
25.4
100
AcDbLine
 10
449.35949171
 20
250.7403525241
 30
0.0
 11
450.4465316995
 21
254.7972409946
 31
0.0
  0
LINE
  5
203
330
15C
100
AcDbEntity
  8
DV2_Default
  6
CENTER2
 62
     7
 48
25.4
100
AcDbLine
 10
449.35949171
 20
250.7403525241
 30
0.0
 11
448.2724517206
 21
246.6834640537
 31
0.0
  0
CIRCLE
  5
204
330
15C
100
AcDbEntity
  8
DV2_Default
  6
HIDDEN2
 62
     7
 48
25.4
100
AcDbCircle
 10
473.5280141417
 20
250.7403525241
 30
0.0
 40
4.2
  0
CIRCLE
  5
205
330
15C
100
AcDbEntity
  8
DV2_Default
  6
HIDDEN2
 62
     7
 48
25.4
100
AcDbCircle
 10
473.5280141417
 20
250.7403525241
 30
0.0
 40
3.85
  0
LINE
  5
206
330
15C
100
AcDbEntity
  8
DV2_Default
  6
CENTER2
 62
     7
 48
25.4
100
AcDbLine
 10
473.5280141417
 20
250.7403525241
 30
0.0
 11
472.4409741523
 21
254.7972409946
 31
0.0
  0
LINE
  5
207
330
15C
100
AcDbEntity
  8
DV2_Default
  6
CENTER2
 62
     7
 48
25.4
100
AcDbLine
 10
473.5280141417
 20
250.7403525241
 30
0.0
 11
474.6150541311
 21
246.6834640537
 31
0.0
  0
ARC
  5
208
330
15C
100
AcDbEntity
  8
DV2_Default
  6
CENTER2
 62
     7
 48
25.4
100
AcDbCircle
 10
461.4437529259
 20
295.8394293536
 30
0.0
 40
46.69000000000001
100
AcDbArc
 50
279.8442175302
 51
290.1557824698
  0
ARC
  5
209
330
15C
100
AcDbEntity
  8
DV2_Default
  6
CENTER2
 62
     7
 48
25.4
100
AcDbCircle
 10
461.4437529259
 20
295.8394293536
 30
0.0
 40
46.69000000000001
100
AcDbArc
 50
249.8442175302
 51
260.1557824698
  0
CIRCLE
  5
20A
330
15C
100
AcDbEntity
  8
DV2_Default
  6
HIDDEN2
 62
     7
 48
25.4
100
AcDbCircle
 10
506.5428297553
 20
307.9236905694
 30
0.0
 40
4.2
  0
CIRCLE
  5
20B
330
15C
100
AcDbEntity
  8
DV2_Default
  6
HIDDEN2
 62
     7
 48
25.4
100
AcDbCircle
 10
506.5428297553
 20
307.9236905694
 30
0.0
 40
3.85
  0
LINE
  5
20C
330
15C
100
AcDbEntity
  8
DV2_Default
  6
CENTER2
 62
     7
 48
25.4
100
AcDbLine
 10
506.5428297553
 20
307.9236905694
 30
0.0
 11
502.4859412849
 21
306.83665058
 31
0.0
  0
LINE
  5
20D
330
15C
100
AcDbEntity
  8
DV2_Default
  6
CENTER2
 62
     7
 48
25.4
100
AcDbLine
 10
506.5428297553
 20
307.9236905694
 30
0.0
 11
510.5997182257
 21
309.0107305588
 31
0.0
  0
CIRCLE
  5
20E
330
15C
100
AcDbEntity
  8
DV2_Default
  6
HIDDEN2
 62
     7
 48
25.4
100
AcDbCircle
 10
494.4585685395
 20
328.8542449672
 30
0.0
 40
4.2
  0
CIRCLE
  5
20F
330
15C
100
AcDbEntity
  8
DV2_Default
  6
HIDDEN2
 62
     7
 48
25.4
100
AcDbCircle
 10
494.4585685395
 20
328.8542449672
 30
0.0
 40
3.85
  0
LINE
  5
210
330
15C
100
AcDbEntity
  8
DV2_Default
  6
CENTER2
 62
     7
 48
25.4
100
AcDbLine
 10
494.4585685395
 20
328.8542449672
 30
0.0
 11
491.4887200585
 21
325.8843964862
 31
0.0
  0
LINE
  5
211
330
15C
100
AcDbEntity
  8
DV2_Default
  6
CENTER2
 62
     7
 48
25.4
100
AcDbLine
 10
494.4585685395
 20
328.8542449672
 30
0.0
 11
497.4284170204
 21
331.8240934482
 31
0.0
  0
ARC
  5
212
330
15C
100
AcDbEntity
  8
DV2_Default
  6
CENTER2
 62
     7
 48
25.4
100
AcDbCircle
 10
461.4437529259
 20
295.8394293536
 30
0.0
 40
46.69000000000001
100
AcDbArc
 50
39.8442175302
 51
50.1557824698
  0
ARC
  5
213
330
15C
100
AcDbEntity
  8
DV2_Default
  6
CENTER2
 62
     7
 48
25.4
100
AcDbCircle
 10
461.4437529259
 20
295.8394293536
 30
0.0
 40
46.69000000000001
100
AcDbArc
 50
9.8442175302
 51
20.1557824698
  0
CIRCLE
  5
214
330
15C
100
AcDbEntity
  8
DV2_Default
  6
HIDDEN2
 62
     7
 48
25.4
100
AcDbCircle
 10
428.4289373123
 20
328.8542449672
 30
0.0
 40
4.2
  0
CIRCLE
  5
215
330
15C
100
AcDbEntity
  8
DV2_Default
  6
HIDDEN2
 62
     7
 48
25.4
100
AcDbCircle
 10
428.4289373123
 20
328.8542449672
 30
0.0
 40
3.85
  0
LINE
  5
216
330
15C
100
AcDbEntity
  8
DV2_Default
  6
CENTER2
 62
     7
 48
25.4
100
AcDbLine
 10
428.4289373123
 20
328.8542449672
 30
0.0
 11
431.3987857932
 21
325.8843964862
 31
0.0
  0
LINE
  5
217
330
15C
100
AcDbEntity
  8
DV2_Default
  6
CENTER2
 62
     7
 48
25.4
100
AcDbLine
 10
428.4289373123
 20
328.8542449672
 30
0.0
 11
425.4590888313
 21
331.8240934482
 31
0.0
  0
CIRCLE
  5
218
330
15C
100
AcDbEntity
  8
DV2_Default
  6
HIDDEN2
 62
     7
 48
25.4
100
AcDbCircle
 10
416.3446760964
 20
307.9236905694
 30
0.0
 40
4.2
  0
CIRCLE
  5
219
330
15C
100
AcDbEntity
  8
DV2_Default
  6
HIDDEN2
 62
     7
 48
25.4
100
AcDbCircle
 10
416.3446760964
 20
307.9236905694
 30
0.0
 40
3.85
  0
LINE
  5
21A
330
15C
100
AcDbEntity
  8
DV2_Default
  6
CENTER2
 62
     7
 48
25.4
100
AcDbLine
 10
416.3446760964
 20
307.9236905694
 30
0.0
 11
420.4015645668
 21
306.83665058
 31
0.0
  0
LINE
  5
21B
330
15C
100
AcDbEntity
  8
DV2_Default
  6
CENTER2
 62
     7
 48
25.4
100
AcDbLine
 10
416.3446760964
 20
307.9236905694
 30
0.0
 11
412.287787626
 21
309.0107305588
 31
0.0
  0
ARC
  5
21C
330
15C
100
AcDbEntity
  8
DV2_Default
  6
CENTER2
 62
     7
 48
25.4
100
AcDbCircle
 10
461.4437529259
 20
295.8394293536
 30
0.0
 40
46.69000000000001
100
AcDbArc
 50
159.8442175302
 51
170.1557824698
  0
ARC
  5
21D
330
15C
100
AcDbEntity
  8
DV2_Default
  6
CENTER2
 62
     7
 48
25.4
100
AcDbCircle
 10
461.4437529259
 20
295.8394293536
 30
0.0
 40
46.69000000000001
100
AcDbArc
 50
129.8442175302
 51
140.1557824698
  0
ENDBLK
  5
21F
330
15C
100
AcDbEntity
  8
0
100
AcDbBlockEnd
  0
BLOCK
  5
2B8
330
220
100
AcDbEntity
  8
0
100
AcDbBlockBegin
  2
SE2
 70
     0
 71
     0
 10
0.0
 20
0.0
 30
0.0
  3
SE2
  1

  0
LINE
  5
223
330
220
100
AcDbEntity
  8
DV3_Default
  6
Continuous
 62
     7
 48
25.4
100
AcDbLine
 10
408.7128672209
 20
143.7845490664
 30
0.0
 11
268.7128672209
 21
143.7845490664
 31
0.0
  0
LINE
  5
224
330
220
100
AcDbEntity
  8
DV3_Default
  6
Continuous
 62
     7
 48
25.4
100
AcDbLine
 10
408.7128672209
 20
143.7845490664
 30
0.0
 11
408.7128672209
 21
36.6845490664
 31
0.0
  0
LINE
  5
225
330
220
100
AcDbEntity
  8
DV3_Default
  6
Continuous
 62
     7
 48
25.4
100
AcDbLine
 10
408.7128672209
 20
36.6845490664
 30
0.0
 11
268.7128672209
 21
36.6845490664
 31
0.0
  0
LINE
  5
226
330
220
100
AcDbEntity
  8
DV3_Default
  6
Continuous
 62
     7
 48
25.4
100
AcDbLine
 10
268.7128672209
 20
36.6845490664
 30
0.0
 11
268.7128672209
 21
143.7845490664
 31
0.0
  0
TEXT
  5
227
330
220
100
AcDbEntity
  8
DV3_Default
  6
Continuous
 62
     7
 48
25.4
100
AcDbText
 10
267.0728427538
 20
31.0639171415
 30
0.0
 40
3.5
  1
0
  7
SEACAD_arial_ttf
 11
267.0728427538
 21
34.5639171415
 31
0.0
100
AcDbText
 73
     3
  0
TEXT
  5
228
330
220
100
AcDbEntity
  8
DV3_Default
  6
Continuous
 62
     7
 48
25.4
100
AcDbText
 10
291.4852827401
 20
31.5151471671
 30
0.0
 40
3.5
  1
1000
  7
SEACAD_arial_ttf
 11
291.4852827401
 21
35.0151471671
 31
0.0
100
AcDbText
 73
     3
  0
TEXT
  5
229
330
220
100
AcDbEntity
  8
DV3_Default
  6
Continuous
 62
     7
 48
25.4
100
AcDbText
 10
319.1381492955
 20
31.1621516858
 30
0.0
 40
3.5
  1
2000
  7
SEACAD_arial_ttf
 11
319.1381492955
 21
34.6621516858
 31
0.0
100
AcDbText
 73
     3
  0
TEXT
  5
22A
330
220
100
AcDbEntity
  8
DV3_Default
  6
Continuous
 62
     7
 48
25.4
100
AcDbText
 10
347.6546550727
 20
31.0799074231
 30
0.0
 40
3.5
  1
3000
  7
SEACAD_arial_ttf
 11
347.6546550727
 21
34.5799074231
 31
0.0
100
AcDbText
 73
     3
  0
TEXT
  5
22B
330
220
100
AcDbEntity
  8
DV3_Default
  6
Continuous
 62
     7
 48
25.4
100
AcDbText
 10
375.3574037919
 20
31.2166686374
 30
0.0
 40
3.5
  1
4000
  7
SEACAD_arial_ttf
 11
375.3574037919
 21
34.7166686374
 31
0.0
100
AcDbText
 73
     3
  0
TEXT
  5
22C
330
220
100
AcDbEntity
  8
DV3_Default
  6
Continuous
 62
     7
 48
25.4
100
AcDbText
 10
389.710322909
 20
31.2117651565
 30
0.0
 40
3.5
  1
4500
  7
SEACAD_arial_ttf
 11
389.710322909
 21
34.7117651565
 31
0.0
100
AcDbText
 73
     3
  0
TEXT
  5
22D
330
220
100
AcDbEntity
  8
DV3_Default
  6
Continuous
 62
     7
 48
25.4
100
AcDbText
 10
261.5751710057
 20
50.1636696254
 30
0.0
 40
3.5
  1
20
  7
SEACAD_arial_ttf
 11
261.5751710057
 21
53.6636696254
 31
0.0
100
AcDbText
 73
     3
  0
TEXT
  5
22E
330
220
100
AcDbEntity
  8
DV3_Default
  6
Continuous
 62
     7
 48
25.4
100
AcDbText
 10
261.3054285321
 20
65.6226601669
 30
0.0
 40
3.5
  1
40
  7
SEACAD_arial_ttf
 11
261.3054285321
 21
69.1226601669
 31
0.0
100
AcDbText
 73
     3
  0
TEXT
  5
22F
330
220
100
AcDbEntity
  8
DV3_Default
  6
Continuous
 62
     7
 48
25.4
100
AcDbText
 10
261.4620429973
 20
80.9057886173
 30
0.0
 40
3.5
  1
60
  7
SEACAD_arial_ttf
 11
261.4620429973
 21
84.4057886173
 31
0.0
100
AcDbText
 73
     3
  0
TEXT
  5
230
330
220
100
AcDbEntity
  8
DV3_Default
  6
Continuous
 62
     7
 48
25.4
100
AcDbText
 10
259.4314568991
 20
111.7836517193
 30
0.0
 40
3.5
  1
100
  7
SEACAD_arial_ttf
 11
259.4314568991
 21
115.2836517193
 31
0.0
100
AcDbText
 73
     3
  0
TEXT
  5
231
330
220
100
AcDbEntity
  8
DV3_Default
  6
Continuous
 62
     7
 48
25.4
100
AcDbText
 10
261.3199827837
 20
96.0037197612
 30
0.0
 40
3.5
  1
80
  7
SEACAD_arial_ttf
 11
261.3199827837
 21
99.5037197612
 31
0.0
100
AcDbText
 73
     3
  0
TEXT
  5
232
330
220
100
AcDbEntity
  8
DV3_Default
  6
Continuous
 62
     7
 48
25.4
100
AcDbText
 10
326.2554537122
 20
123.1629962244
 30
0.0
 40
4.2
  1
Input Force
  7
SEACAD_arial_ttf
 11
326.2554537122
 21
127.3629962244
 31
0.0
100
AcDbText
 73
     3
  0
TEXT
  5
233
330
220
100
AcDbEntity
  8
DV3_Default
  6
Continuous
 62
     7
 48
25.4
100
AcDbText
 10
334.9571811861
 20
115.1152312007
 30
0.0
 40
3.5
  1
48.8KN
  7
SEACAD_arial_ttf
 11
334.9571811861
 21
118.6152312007
 31
0.0
100
AcDbText
 73
     3
  0
TEXT
  5
234
330
220
100
AcDbEntity
  8
DV3_Default
  6
Continuous
 62
     7
 48
25.4
100
AcDbText
 10
335.1812323178
 20
106.789367628
 30
0.0
 40
3.5
  1
44KN
  7
SEACAD_arial_ttf
 11
335.1812323178
 21
110.289367628
 31
0.0
100
AcDbText
 73
     3
  0
TEXT
  5
235
330
220
100
AcDbEntity
  8
DV3_Default
  6
Continuous
 62
     7
 48
25.4
100
AcDbText
 10
335.0983929593
 20
98.4027760662
 30
0.0
 40
3.5
  1
40KN
  7
SEACAD_arial_ttf
 11
335.0983929593
 21
101.9027760662
 31
0.0
100
AcDbText
 73
     3
  0
TEXT
  5
236
330
220
100
AcDbEntity
  8
DV3_Default
  6
Continuous
 62
     7
 48
25.4
100
AcDbText
 10
335.1879546237
 20
83.5332971121
 30
0.0
 40
3.5
  1
32KN
  7
SEACAD_arial_ttf
 11
335.1879546237
 21
87.0332971121
 31
0.0
100
AcDbText
 73
     3
  0
TEXT
  5
237
330
220
100
AcDbEntity
  8
DV3_Default
  6
Continuous
 62
     7
 48
25.4
100
AcDbText
 10
335.1170672824
 20
90.2923468041
 30
0.0
 40
3.5
  1
36KN
  7
SEACAD_arial_ttf
 11
335.1170672824
 21
93.7923468041
 31
0.0
100
AcDbText
 73
     3
  0
TEXT
  5
238
330
220
100
AcDbEntity
  8
DV3_Default
  6
Continuous
 62
     7
 48
25.4
100
AcDbText
 10
335.1328949904
 20
74.9048779303
 30
0.0
 40
3.5
  1
28KN
  7
SEACAD_arial_ttf
 11
335.1328949904
 21
78.4048779303
 31
0.0
100
AcDbText
 73
     3
  0
TEXT
  5
239
330
220
100
AcDbEntity
  8
DV3_Default
  6
Continuous
 62
     7
 48
25.4
100
AcDbText
 10
335.0425694824
 20
67.7013083651
 30
0.0
 40
3.5
  1
24KN
  7
SEACAD_arial_ttf
 11
335.0425694824
 21
71.2013083651
 31
0.0
100
AcDbText
 73
     3
  0
TEXT
  5
23A
330
220
100
AcDbEntity
  8
DV3_Default
  6
Continuous
 62
     7
 48
25.4
100
AcDbText
 10
335.0442770093
 20
59.3968025742
 30
0.0
 40
3.5
  1
20KN
  7
SEACAD_arial_ttf
 11
335.0442770093
 21
62.8968025742
 31
0.0
100
AcDbText
 73
     3
  0
TEXT
  5
23B
330
220
100
AcDbEntity
  8
DV3_Default
  6
Continuous
 62
     7
 48
25.4
100
AcDbText
 10
334.5982112182
 20
52.1685430923
 30
0.0
 40
3.5
  1
16KN
  7
SEACAD_arial_ttf
 11
334.5982112182
 21
55.6685430923
 31
0.0
100
AcDbText
 73
     3
  0
TEXT
  5
23C
330
220
100
AcDbEntity
  8
DV3_Default
  6
Continuous
 62
     7
 48
25.4
100
AcDbText
 10
326.2285622984
 20
17.738196888
 30
0.0
 40
4.2
  1
Speed in min-
  7
SEACAD_arial_ttf
 11
326.2285622984
 21
21.938196888
 31
0.0
100
AcDbText
 73
     3
  0
TEXT
  5
23D
330
220
100
AcDbEntity
  8
DV3_Default
  6
Continuous
 62
     7
 48
25.4
100
AcDbText
 10
362.658997081
 20
17.738196888
 30
0.0
 40
3.2102777778
  1
¹
  7
SEACAD_arial_ttf
 11
362.658997081
 21
20.9484746658
 31
0.0
100
AcDbText
 73
     3
  0
TEXT
  5
23E
330
220
100
AcDbEntity
  8
DV3_Default
  6
Continuous
 62
     7
 48
25.4
100
AcDbText
 10
221.543977666
 20
96.4788082357
 30
0.0
 40
4.2
  1
Total Gripping 
  7
SEACAD_arial_ttf
 11
221.543977666
 21
100.6788082357
 31
0.0
100
AcDbText
 73
     3
  0
TEXT
  5
23F
330
220
100
AcDbEntity
  8
DV3_Default
  6
Continuous
 62
     7
 48
25.4
100
AcDbText
 10
221.543977666
 20
89.9048951922
 30
0.0
 40
4.2
  1
Force in KN
  7
SEACAD_arial_ttf
 11
221.543977666
 21
94.1048951922
 31
0.0
100
AcDbText
 73
     3
  0
TEXT
  5
240
330
220
100
AcDbEntity
  8
DV3_Default
  6
Continuous
 62
     7
 48
25.4
100
AcDbText
 10
281.7766875092
 20
161.9757107887
 30
0.0
 40
4.2
  1
Gripping Characteristic Graph For BB210A6
  7
SEACAD_arial_ttf
 11
281.7766875092
 21
166.1757107887
 31
0.0
100
AcDbText
 73
     3
  0
LWPOLYLINE
  5
241
330
220
100
AcDbEntity
  8
DV3_Default
  6
Continuous
 62
     7
 48
25.4
100
AcDbPolyline
 90
        2
 70
     0
 43
0.0
 10
414.0214262517
 20
39.3304720466
 10
372.9827274596
 20
58.309162087
  0
HATCH
  5
242
330
220
100
AcDbEntity
  8
DV3_Default
  6
Continuous
 62
     7
 48
25.4
100
AcDbHatch
 10
0.0
 20
0.0
 30
0.0
210
0.0
220
0.0
230
1.0
  2
SOLID
 70
     1
 71
     0
 91
        1
 92
        1
 93
        3
 72
     1
 10
377.0886439872107
 20
57.18157626604656
 11
372.9827274596297
 21
58.30916208704742
 72
     1
 10
372.9827274596297
 20
58.30916208704743
 11
376.5009990437736
 21
55.91087824742576
 72
     1
 10
376.5009990437736
 20
55.91087824742576
 11
377.0886439872107
 21
57.18157626604656
 97
        0
 75
     0
 76
     1
 98
        0
  0
LWPOLYLINE
  5
243
330
220
100
AcDbEntity
  8
DV3_Default
  6
Continuous
 62
     7
 48
25.4
370
    20
100
AcDbPolyline
 90
        4
 70
     1
 43
0.00025
 10
377.0886439872
 20
57.181576266
 10
372.9827274596
 20
58.309162087
 10
376.5009990438
 20
55.9108782474
 10
377.0886439872
 20
57.181576266
  0
LINE
  5
244
330
220
100
AcDbEntity
  8
DV3_Default
  6
Continuous
 62
     7
 48
25.4
100
AcDbLine
 10
414.0214262517
 20
39.3304720466
 30
0.0
 11
466.9779479909
 21
39.3304720466
 31
0.0
  0
TEXT
  5
245
330
220
100
AcDbEntity
  8
DV3_Default
  6
Continuous
 62
     7
 48
25.4
100
AcDbText
 10
414.0214262517
 20
40.3804720466
 30
0.0
 40
4.2
  1
Gripping Force Limit
  7
SEACAD_arial_ttf
 11
414.0214262517
 21
44.5804720466
 31
0.0
100
AcDbText
 73
     3
  0
TEXT
  5
246
330
220
100
AcDbEntity
  8
DV3_Default
  6
Continuous
 62
     7
 48
25.4
100
AcDbText
 10
18.2600045222
 20
145.4533630054
 30
0.0
 40
3.5
  1
SPINDLE NOSE SIZE
  7
SEACAD_arial_ttf
 11
18.2600045222
 21
148.9533630054
 31
0.0
100
AcDbText
 73
     3
  0
TEXT
  5
247
330
220
100
AcDbEntity
  8
DV3_Default
  6
Continuous
 62
     7
 48
25.4
100
AcDbText
 10
123.9451948362
 20
145.4533630054
 30
0.0
 40
3.5
  1
A2-6
  7
SEACAD_arial_ttf
 11
123.9451948362
 21
148.9533630054
 31
0.0
100
AcDbText
 73
     3
  0
TEXT
  5
248
330
220
100
AcDbEntity
  8
DV3_Default
  6
Continuous
 62
     7
 48
25.4
100
AcDbText
 10
18.3808633816
 20
69.9787541511
 30
0.0
 40
3.5
  1
TOTAL GRIPPING FORCE AT MAX. SPEED
  7
SEACAD_arial_ttf
 11
18.3808633816
 21
73.4787541511
 31
0.0
100
AcDbText
 73
     3
  0
TEXT
  5
249
330
220
100
AcDbEntity
  8
DV3_Default
  6
Continuous
 62
     7
 48
25.4
100
AcDbText
 10
123.6401670734
 20
19.4663700989
 30
0.0
 40
3.5
  1
SB10B1
  7
SEACAD_arial_ttf
 11
123.6401670734
 21
22.9663700989
 31
0.0
100
AcDbText
 73
     3
  0
LINE
  5
24A
330
220
100
AcDbEntity
  8
DV3_Default
  6
Continuous
 62
     7
 48
25.4
100
AcDbLine
 10
16.4047884499
 20
25.4110476619
 30
0.0
 11
184.4047884499
 21
25.4110476619
 31
0.0
  0
LINE
  5
24B
330
220
100
AcDbEntity
  8
DV3_Default
  6
Continuous
 62
     7
 48
25.4
100
AcDbLine
 10
184.4047884499
 20
151.4110476619
 30
0.0
 11
16.4047884499
 21
151.4110476619
 31
0.0
  0
LINE
  5
24C
330
220
100
AcDbEntity
  8
DV3_Default
  6
Continuous
 62
     7
 48
25.4
100
AcDbLine
 10
16.4047884499
 20
143.0110476619
 30
0.0
 11
184.4047884499
 21
143.0110476619
 31
0.0
  0
LINE
  5
24D
330
220
100
AcDbEntity
  8
DV3_Default
  6
Continuous
 62
     7
 48
25.4
100
AcDbLine
 10
184.4047884499
 20
134.6110476619
 30
0.0
 11
16.4047884499
 21
134.6110476619
 31
0.0
  0
LINE
  5
24E
330
220
100
AcDbEntity
  8
DV3_Default
  6
Continuous
 62
     7
 48
25.4
100
AcDbLine
 10
16.4047884499
 20
126.2110476619
 30
0.0
 11
184.4047884499
 21
126.2110476619
 31
0.0
  0
LINE
  5
24F
330
220
100
AcDbEntity
  8
DV3_Default
  6
Continuous
 62
     7
 48
25.4
100
AcDbLine
 10
184.4047884499
 20
117.8110476619
 30
0.0
 11
16.4047884499
 21
117.8110476619
 31
0.0
  0
LINE
  5
250
330
220
100
AcDbEntity
  8
DV3_Default
  6
Continuous
 62
     7
 48
25.4
100
AcDbLine
 10
16.4047884499
 20
109.4110476619
 30
0.0
 11
184.4047884499
 21
109.4110476619
 31
0.0
  0
LINE
  5
251
330
220
100
AcDbEntity
  8
DV3_Default
  6
Continuous
 62
     7
 48
25.4
100
AcDbLine
 10
184.4047884499
 20
101.0110476619
 30
0.0
 11
16.4047884499
 21
101.0110476619
 31
0.0
  0
LINE
  5
252
330
220
100
AcDbEntity
  8
DV3_Default
  6
Continuous
 62
     7
 48
25.4
100
AcDbLine
 10
16.4047884499
 20
92.6110476619
 30
0.0
 11
184.4047884499
 21
92.6110476619
 31
0.0
  0
LINE
  5
253
330
220
100
AcDbEntity
  8
DV3_Default
  6
Continuous
 62
     7
 48
25.4
100
AcDbLine
 10
184.4047884499
 20
84.2110476619
 30
0.0
 11
16.4047884499
 21
84.2110476619
 31
0.0
  0
LINE
  5
254
330
220
100
AcDbEntity
  8
DV3_Default
  6
Continuous
 62
     7
 48
25.4
100
AcDbLine
 10
16.4047884499
 20
75.8110476619
 30
0.0
 11
184.4047884499
 21
75.8110476619
 31
0.0
  0
LINE
  5
255
330
220
100
AcDbEntity
  8
DV3_Default
  6
Continuous
 62
     7
 48
25.4
100
AcDbLine
 10
184.4047884499
 20
67.4110476619
 30
0.0
 11
16.4047884499
 21
67.4110476619
 31
0.0
  0
LINE
  5
256
330
220
100
AcDbEntity
  8
DV3_Default
  6
Continuous
 62
     7
 48
25.4
100
AcDbLine
 10
16.4047884499
 20
59.0110476619
 30
0.0
 11
184.4047884499
 21
59.0110476619
 31
0.0
  0
LINE
  5
257
330
220
100
AcDbEntity
  8
DV3_Default
  6
Continuous
 62
     7
 48
25.4
100
AcDbLine
 10
184.4047884499
 20
50.6110476619
 30
0.0
 11
16.4047884499
 21
50.6110476619
 31
0.0
  0
LINE
  5
258
330
220
100
AcDbEntity
  8
DV3_Default
  6
Continuous
 62
     7
 48
25.4
100
AcDbLine
 10
16.4047884499
 20
42.2110476619
 30
0.0
 11
184.4047884499
 21
42.2110476619
 31
0.0
  0
LINE
  5
259
330
220
100
AcDbEntity
  8
DV3_Default
  6
Continuous
 62
     7
 48
25.4
100
AcDbLine
 10
184.4047884499
 20
33.8110476619
 30
0.0
 11
16.4047884499
 21
33.8110476619
 31
0.0
  0
TEXT
  5
25A
330
220
100
AcDbEntity
  8
DV3_Default
  6
Continuous
 62
     7
 48
25.4
100
AcDbText
 10
72.1534167256
 20
165.1250692086
 30
0.0
 40
4.2
  1
Specifications
  7
SEACAD_arial_ttf
 11
72.1534167256
 21
169.3250692086
 31
0.0
100
AcDbText
 73
     3
  0
TEXT
  5
25B
330
220
100
AcDbEntity
  8
DV3_Default
  6
Continuous
 62
     7
 48
25.4
100
AcDbText
 10
18.4087000339
 20
137.1016648272
 30
0.0
 40
3.5
  1
THROUGH HOLE
  7
SEACAD_arial_ttf
 11
18.4087000339
 21
140.6016648272
 31
0.0
100
AcDbText
 73
     3
  0
TEXT
  5
25C
330
220
100
AcDbEntity
  8
DV3_Default
  6
Continuous
 62
     7
 48
25.4
100
AcDbText
 10
123.7709493645
 20
136.83014502
 30
0.0
 40
3.5
  1
81mm
  7
SEACAD_arial_ttf
 11
123.7709493645
 21
140.33014502
 31
0.0
100
AcDbText
 73
     3
  0
TEXT
  5
25D
330
220
100
AcDbEntity
  8
DV3_Default
  6
Continuous
 62
     7
 48
25.4
100
AcDbText
 10
18.1406426268
 20
128.6569669641
 30
0.0
 40
3.5
  1
MAX. GRIPPING RANGE
  7
SEACAD_arial_ttf
 11
18.1406426268
 21
132.1569669641
 31
0.0
100
AcDbText
 73
     3
  0
TEXT
  5
25E
330
220
100
AcDbEntity
  8
DV3_Default
  6
Continuous
 62
     7
 48
25.4
100
AcDbText
 10
18.1456057004
 20
120.3901183782
 30
0.0
 40
3.5
  1
MIN. GRIPPING RANGE
  7
SEACAD_arial_ttf
 11
18.1456057004
 21
123.8901183782
 31
0.0
100
AcDbText
 73
     3
  0
TEXT
  5
25F
330
220
100
AcDbEntity
  8
DV3_Default
  6
Continuous
 62
     7
 48
25.4
100
AcDbText
 10
18.2540018119
 20
111.844920349
 30
0.0
 40
3.5
  1
JAW STROKE
  7
SEACAD_arial_ttf
 11
18.2540018119
 21
115.344920349
 31
0.0
100
AcDbText
 73
     3
  0
TEXT
  5
260
330
220
100
AcDbEntity
  8
DV3_Default
  6
Continuous
 62
     7
 48
25.4
100
AcDbText
 10
18.0914076447
 20
103.5470247625
 30
0.0
 40
3.5
  1
PLUNGER STROKE
  7
SEACAD_arial_ttf
 11
18.0914076447
 21
107.0470247625
 31
0.0
100
AcDbText
 73
     3
  0
TEXT
  5
261
330
220
100
AcDbEntity
  8
DV3_Default
  6
Continuous
 62
     7
 48
25.4
100
AcDbText
 10
18.0140585337
 20
94.916581677
 30
0.0
 40
3.5
  1
MAX. PERMISSIBLE INPUT FORCE
  7
SEACAD_arial_ttf
 11
18.0140585337
 21
98.416581677
 31
0.0
100
AcDbText
 73
     3
  0
TEXT
  5
262
330
220
100
AcDbEntity
  8
DV3_Default
  6
Continuous
 62
     7
 48
25.4
100
AcDbText
 10
18.1456057004
 20
86.6728841463
 30
0.0
 40
3.5
  1
MAX. STATIC GRIPPING FORCE
  7
SEACAD_arial_ttf
 11
18.1456057004
 21
90.1728841463
 31
0.0
100
AcDbText
 73
     3
  0
TEXT
  5
263
330
220
100
AcDbEntity
  8
DV3_Default
  6
Continuous
 62
     7
 48
25.4
100
AcDbText
 10
18.1456057004
 20
78.2513373384
 30
0.0
 40
3.5
  1
MAX. PERMISSIBLE SPEED
  7
SEACAD_arial_ttf
 11
18.1456057004
 21
81.7513373384
 31
0.0
100
AcDbText
 73
     3
  0
TEXT
  5
264
330
220
100
AcDbEntity
  8
DV3_Default
  6
Continuous
 62
     7
 48
25.4
100
AcDbText
 10
18.09930359
 20
61.3308946118
 30
0.0
 40
3.5
  1
NET WEIGHT WITH SOFT TOP JAWS
  7
SEACAD_arial_ttf
 11
18.09930359
 21
64.8308946118
 31
0.0
100
AcDbText
 73
     3
  0
TEXT
  5
265
330
220
100
AcDbEntity
  8
DV3_Default
  6
Continuous
 62
     7
 48
25.4
100
AcDbText
 10
18.09930359
 20
52.8861967487
 30
0.0
 40
3.5
  1
MOMENT OF INERTIA
  7
SEACAD_arial_ttf
 11
18.09930359
 21
56.3861967487
 31
0.0
100
AcDbText
 73
     3
  0
TEXT
  5
266
330
220
100
AcDbEntity
  8
DV3_Default
  6
Continuous
 62
     7
 48
25.4
100
AcDbText
 10
18.0761525348
 20
44.7429993842
 30
0.0
 40
3.5
  1
MATCHING CYLINDER
  7
SEACAD_arial_ttf
 11
18.0761525348
 21
48.2429993842
 31
0.0
100
AcDbText
 73
     3
  0
TEXT
  5
267
330
220
100
AcDbEntity
  8
DV3_Default
  6
Continuous
 62
     7
 48
25.4
100
AcDbText
 10
18.0761525348
 20
36.5071977988
 30
0.0
 40
3.5
  1
MAX. PERMISSIBLE OIL PRESSURE
  7
SEACAD_arial_ttf
 11
18.0761525348
 21
40.0071977988
 31
0.0
100
AcDbText
 73
     3
  0
TEXT
  5
268
330
220
100
AcDbEntity
  8
DV3_Default
  6
Continuous
 62
     7
 48
25.4
100
AcDbText
 10
18.0987326515
 20
27.9864011138
 30
0.0
 40
3.5
  1
MATCHING HARD TOP JAW
  7
SEACAD_arial_ttf
 11
18.0987326515
 21
31.4864011138
 31
0.0
100
AcDbText
 73
     3
  0
TEXT
  5
269
330
220
100
AcDbEntity
  8
DV3_Default
  6
Continuous
 62
     7
 48
25.4
100
AcDbText
 10
18.0987326515
 20
19.7335573488
 30
0.0
 40
3.5
  1
MATCHING SOFT TOP JAW
  7
SEACAD_arial_ttf
 11
18.0987326515
 21
23.2335573488
 31
0.0
100
AcDbText
 73
     3
  0
LINE
  5
26A
330
220
100
AcDbEntity
  8
DV3_Default
  6
Continuous
 62
     7
 48
25.4
100
AcDbLine
 10
16.4047884499
 20
17.0110476619
 30
0.0
 11
184.4047884499
 21
17.0110476619
 31
0.0
  0
LINE
  5
26B
330
220
100
AcDbEntity
  8
DV3_Default
  6
Continuous
 62
     7
 48
25.4
100
AcDbLine
 10
121.2768015001
 20
151.4110476619
 30
0.0
 11
121.2768015001
 21
17.0110476619
 31
0.0
  0
LINE
  5
26C
330
220
100
AcDbEntity
  8
DV3_Default
  6
Continuous
 62
     7
 48
25.4
100
AcDbLine
 10
16.4047884499
 20
151.4110476619
 30
0.0
 11
16.4047884499
 21
17.0110476619
 31
0.0
  0
LINE
  5
26D
330
220
100
AcDbEntity
  8
DV3_Default
  6
Continuous
 62
     7
 48
25.4
100
AcDbLine
 10
184.4047884499
 20
151.4110476619
 30
0.0
 11
184.4047884499
 21
17.0110476619
 31
0.0
  0
TEXT
  5
26E
330
220
100
AcDbEntity
  8
DV3_Default
  6
Continuous
 62
     7
 48
25.4
100
AcDbText
 10
123.7001848775
 20
128.3332435586
 30
0.0
 40
3.5
  1
254mm
  7
SEACAD_arial_ttf
 11
123.7001848775
 21
131.8332435586
 31
0.0
100
AcDbText
 73
     3
  0
TEXT
  5
26F
330
220
100
AcDbEntity
  8
DV3_Default
  6
Continuous
 62
     7
 48
25.4
100
AcDbText
 10
123.8155420241
 20
120.3115867705
 30
0.0
 40
3.5
  1
41mm
  7
SEACAD_arial_ttf
 11
123.8155420241
 21
123.8115867705
 31
0.0
100
AcDbText
 73
     3
  0
TEXT
  5
270
330
220
100
AcDbEntity
  8
DV3_Default
  6
Continuous
 62
     7
 48
25.4
100
AcDbText
 10
123.7214179478
 20
111.8024063772
 30
0.0
 40
3.5
  1
8.8mm
  7
SEACAD_arial_ttf
 11
123.7214179478
 21
115.3024063772
 31
0.0
100
AcDbText
 73
     3
  0
TEXT
  5
271
330
220
100
AcDbEntity
  8
DV3_Default
  6
Continuous
 62
     7
 48
25.4
100
AcDbText
 10
123.3935034814
 20
103.3194803603
 30
0.0
 40
3.5
  1
19mm
  7
SEACAD_arial_ttf
 11
123.3935034814
 21
106.8194803603
 31
0.0
100
AcDbText
 73
     3
  0
TEXT
  5
272
330
220
100
AcDbEntity
  8
DV3_Default
  6
Continuous
 62
     7
 48
25.4
100
AcDbText
 10
123.8882955353
 20
95.0255913573
 30
0.0
 40
3.5
  1
48.8kN
  7
SEACAD_arial_ttf
 11
123.8882955353
 21
98.5255913573
 31
0.0
100
AcDbText
 73
     3
  0
TEXT
  5
273
330
220
100
AcDbEntity
  8
DV3_Default
  6
Continuous
 62
     7
 48
25.4
100
AcDbText
 10
123.4378223341
 20
86.5761083579
 30
0.0
 40
3.5
  1
126kN
  7
SEACAD_arial_ttf
 11
123.4378223341
 21
90.0761083579
 31
0.0
100
AcDbText
 73
     3
  0
TEXT
  5
274
330
220
100
AcDbEntity
  8
DV3_Default
  6
Continuous
 62
     7
 48
25.4
100
AcDbText
 10
123.8402645974
 20
78.0658588543
 30
0.0
 40
3.5
  1
4500min-
  7
SEACAD_arial_ttf
 11
123.8402645974
 21
81.5658588543
 31
0.0
100
AcDbText
 73
     3
  0
TEXT
  5
275
330
220
100
AcDbEntity
  8
DV3_Default
  6
Continuous
 62
     7
 48
25.4
100
AcDbText
 10
144.3837428583
 20
78.0658588543
 30
0.0
 40
3.2102777778
  1
¹
  7
SEACAD_arial_ttf
 11
144.3837428583
 21
81.2761366321
 31
0.0
100
AcDbText
 73
     3
  0
TEXT
  5
276
330
220
100
AcDbEntity
  8
DV3_Default
  6
Continuous
 62
     7
 48
25.4
100
AcDbText
 10
123.8519850246
 20
69.9583939019
 30
0.0
 40
3.5
  1
42kN
  7
SEACAD_arial_ttf
 11
123.8519850246
 21
73.4583939019
 31
0.0
100
AcDbText
 73
     3
  0
TEXT
  5
277
330
220
100
AcDbEntity
  8
DV3_Default
  6
Continuous
 62
     7
 48
25.4
100
AcDbText
 10
123.7953192277
 20
61.4343042973
 30
0.0
 40
3.5
  1
37.6kg
  7
SEACAD_arial_ttf
 11
123.7953192277
 21
64.9343042973
 31
0.0
100
AcDbText
 73
     3
  0
TEXT
  5
278
330
220
100
AcDbEntity
  8
DV3_Default
  6
Continuous
 62
     7
 48
25.4
100
AcDbText
 10
123.6793548817
 20
53.1234717771
 30
0.0
 40
3.5
  1
0.355kg.m
  7
SEACAD_arial_ttf
 11
123.6793548817
 21
56.6234717771
 31
0.0
100
AcDbText
 73
     3
  0
TEXT
  5
279
330
220
100
AcDbEntity
  8
DV3_Default
  6
Continuous
 62
     7
 48
25.4
100
AcDbText
 10
146.8097896643
 20
53.1234717771
 30
0.0
 40
3.2102777778
  1
²
  7
SEACAD_arial_ttf
 11
146.8097896643
 21
56.3337495549
 31
0.0
100
AcDbText
 73
     3
  0
TEXT
  5
27A
330
220
100
AcDbEntity
  8
DV3_Default
  6
Continuous
 62
     7
 48
25.4
100
AcDbText
 10
123.6962712471
 20
44.5752591404
 30
0.0
 40
3.5
  1
SS1881K
  7
SEACAD_arial_ttf
 11
123.6962712471
 21
48.0752591404
 31
0.0
100
AcDbText
 73
     3
  0
TEXT
  5
27B
330
220
100
AcDbEntity
  8
DV3_Default
  6
Continuous
 62
     7
 48
25.4
100
AcDbText
 10
123.7250207913
 20
35.9296567269
 30
0.0
 40
3.5
  1
3.09MPa
  7
SEACAD_arial_ttf
 11
123.7250207913
 21
39.4296567269
 31
0.0
100
AcDbText
 73
     3
  0
TEXT
  5
27C
330
220
100
AcDbEntity
  8
DV3_Default
  6
Continuous
 62
     7
 48
25.4
100
AcDbText
 10
123.5105179593
 20
27.9124576639
 30
0.0
 40
3.5
  1
HB10AA1
  7
SEACAD_arial_ttf
 11
123.5105179593
 21
31.4124576639
 31
0.0
100
AcDbText
 73
     3
  0
LINE
  5
27D
330
220
100
AcDbEntity
  8
DV3_Default
  6
Continuous
 62
     7
 48
25.4
100
AcDbLine
 10
223.0792123488
 20
147.2548621134
 30
0.0
 11
223.0792123488
 21
152.8548621134
 31
0.0
  0
LINE
  5
27E
330
220
100
AcDbEntity
  8
DV3_Default
  6
Continuous
 62
     7
 48
25.4
100
AcDbLine
 10
213.9792123488
 20
152.8548621134
 30
0.0
 11
213.9792123488
 21
155.1301999861
 31
0.0
  0
LINE
  5
27F
330
220
100
AcDbEntity
  8
DV3_Default
  6
Continuous
 62
     7
 48
25.4
100
AcDbLine
 10
208.0292123488
 20
147.2551999861
 30
0.0
 11
208.0292123488
 21
153.3801999861
 31
0.0
  0
LINE
  5
280
330
220
100
AcDbEntity
  8
DV3_Default
  6
Continuous
 62
     7
 48
25.4
100
AcDbLine
 10
209.7792123488
 20
155.1301999861
 30
0.0
 11
213.9792123488
 21
155.1301999861
 31
0.0
  0
LINE
  5
281
330
220
100
AcDbEntity
  8
DV3_Default
  6
Continuous
 62
     7
 48
25.4
100
AcDbLine
 10
208.0292123488
 20
153.3801999861
 30
0.0
 11
209.7792123488
 21
155.1301999861
 31
0.0
  0
LINE
  5
282
330
220
100
AcDbEntity
  8
DV3_Default
  6
Continuous
 62
     7
 48
25.4
100
AcDbLine
 10
213.9792123488
 20
155.1301999861
 30
0.0
 11
213.6761034575
 21
155.4333088774
 31
0.0
  0
LINE
  5
283
330
220
100
AcDbEntity
  8
DV3_Default
  6
Continuous
 62
     7
 48
25.4
100
AcDbLine
 10
220.9753039421
 20
154.2548621134
 30
0.0
 11
220.9753039421
 21
160.5548621134
 31
0.0
  0
LINE
  5
284
330
220
100
AcDbEntity
  8
DV3_Default
  6
Continuous
 62
     7
 48
25.4
100
AcDbLine
 10
219.5753039421
 20
161.9548621134
 30
0.0
 11
209.0753039421
 21
161.9548621134
 31
0.0
  0
LINE
  5
285
330
220
100
AcDbEntity
  8
DV3_Default
  6
Continuous
 62
     7
 48
25.4
100
AcDbLine
 10
220.9753039421
 20
160.5548621134
 30
0.0
 11
219.5753039421
 21
161.9548621134
 31
0.0
  0
LINE
  5
286
330
220
100
AcDbEntity
  8
DV3_Default
  6
Continuous
 62
     7
 48
25.4
100
AcDbLine
 10
219.5753039421
 20
161.9548621134
 30
0.0
 11
219.5753039421
 21
173.1548621134
 31
0.0
  0
LINE
  5
287
330
220
100
AcDbEntity
  8
DV3_Default
  6
Continuous
 62
     7
 48
25.4
100
AcDbLine
 10
213.6761034575
 20
155.4333088774
 30
0.0
 11
209.4761034575
 21
155.4333088774
 31
0.0
  0
LINE
  5
288
330
220
100
AcDbEntity
  8
DV3_Default
  6
Continuous
 62
     7
 48
25.4
100
AcDbLine
 10
209.4761034575
 20
155.4333088774
 30
0.0
 11
207.6679607073
 21
153.6251661273
 31
0.0
  0
LINE
  5
289
330
220
100
AcDbEntity
  8
DV3_Default
  6
Continuous
 62
     7
 48
25.4
100
AcDbLine
 10
207.6679607073
 20
153.6251661273
 30
0.0
 11
207.6679607073
 21
147.2548621134
 31
0.0
  0
LINE
  5
28A
330
220
100
AcDbEntity
  8
DV3_Default
  6
Continuous
 62
     7
 48
25.4
100
AcDbLine
 10
223.0792123488
 20
147.2548621134
 30
0.0
 11
223.0792123488
 21
141.6548621134
 31
0.0
  0
LINE
  5
28B
330
220
100
AcDbEntity
  8
DV3_Default
  6
Continuous
 62
     7
 48
25.4
100
AcDbLine
 10
213.9792123488
 20
141.6548621134
 30
0.0
 11
213.9792123488
 21
139.3795242406
 31
0.0
  0
LINE
  5
28C
330
220
100
AcDbEntity
  8
DV3_Default
  6
Continuous
 62
     7
 48
25.4
100
AcDbLine
 10
208.0292123488
 20
147.2545242406
 30
0.0
 11
208.0292123488
 21
141.1295242406
 31
0.0
  0
LINE
  5
28D
330
220
100
AcDbEntity
  8
DV3_Default
  6
Continuous
 62
     7
 48
25.4
100
AcDbLine
 10
209.7792123488
 20
139.3795242406
 30
0.0
 11
213.9792123488
 21
139.3795242406
 31
0.0
  0
LINE
  5
28E
330
220
100
AcDbEntity
  8
DV3_Default
  6
Continuous
 62
     7
 48
25.4
100
AcDbLine
 10
208.0292123488
 20
141.1295242406
 30
0.0
 11
209.7792123488
 21
139.3795242406
 31
0.0
  0
LINE
  5
28F
330
220
100
AcDbEntity
  8
DV3_Default
  6
Continuous
 62
     7
 48
25.4
100
AcDbLine
 10
213.9792123488
 20
139.3795242406
 30
0.0
 11
213.6761034575
 21
139.0764153493
 31
0.0
  0
LINE
  5
290
330
220
100
AcDbEntity
  8
DV3_Default
  6
Continuous
 62
     7
 48
25.4
100
AcDbLine
 10
220.9753039421
 20
140.2548621134
 30
0.0
 11
220.9753039421
 21
133.9548621134
 31
0.0
  0
LINE
  5
291
330
220
100
AcDbEntity
  8
DV3_Default
  6
Continuous
 62
     7
 48
25.4
100
AcDbLine
 10
219.5753039421
 20
132.5548621134
 30
0.0
 11
209.0753039421
 21
132.5548621134
 31
0.0
  0
LINE
  5
292
330
220
100
AcDbEntity
  8
DV3_Default
  6
Continuous
 62
     7
 48
25.4
100
AcDbLine
 10
220.9753039421
 20
133.9548621134
 30
0.0
 11
219.5753039421
 21
132.5548621134
 31
0.0
  0
LINE
  5
293
330
220
100
AcDbEntity
  8
DV3_Default
  6
Continuous
 62
     7
 48
25.4
100
AcDbLine
 10
219.5753039421
 20
132.5548621134
 30
0.0
 11
219.5753039421
 21
121.3548621134
 31
0.0
  0
LINE
  5
294
330
220
100
AcDbEntity
  8
DV3_Default
  6
Continuous
 62
     7
 48
25.4
100
AcDbLine
 10
213.6761034575
 20
139.0764153493
 30
0.0
 11
209.4761034575
 21
139.0764153493
 31
0.0
  0
LINE
  5
295
330
220
100
AcDbEntity
  8
DV3_Default
  6
Continuous
 62
     7
 48
25.4
100
AcDbLine
 10
209.4761034575
 20
139.0764153493
 30
0.0
 11
207.6679607073
 21
140.8845580995
 31
0.0
  0
LINE
  5
296
330
220
100
AcDbEntity
  8
DV3_Default
  6
Continuous
 62
     7
 48
25.4
100
AcDbLine
 10
207.6679607073
 20
140.8845580995
 30
0.0
 11
207.6679607073
 21
147.2548621134
 31
0.0
  0
LINE
  5
297
330
220
100
AcDbEntity
  8
DV3_Default
  6
Continuous
 62
     7
 48
25.4
100
AcDbLine
 10
220.1034471518
 20
161.4267189036
 30
0.0
 11
220.1034471518
 21
153.3830053231
 31
0.0
  0
LINE
  5
298
330
220
100
AcDbEntity
  8
DV3_Default
  6
Continuous
 62
     7
 48
25.4
100
AcDbLine
 10
220.1034471518
 20
141.1267189036
 30
0.0
 11
220.1034471518
 21
133.0830053231
 31
0.0
  0
TEXT
  5
299
330
220
100
AcDbEntity
  8
DV3_Default
  6
Continuous
 62
     7
 48
25.4
100
AcDbText
 10
259.2287731465
 20
126.2204101071
 30
0.0
 40
3.5
  1
120
  7
SEACAD_arial_ttf
 11
259.2287731465
 21
129.7204101071
 31
0.0
100
AcDbText
 73
     3
  0
LINE
  5
29A
330
220
100
AcDbEntity
  8
DV3_Default
  6
Continuous
 62
     7
 48
25.4
100
AcDbLine
 10
268.7128672209
 20
51.9445490664
 30
0.0
 11
408.7128672209
 21
51.9445490664
 31
0.0
  0
LINE
  5
29B
330
220
100
AcDbEntity
  8
DV3_Default
  6
Continuous
 62
     7
 48
25.4
100
AcDbLine
 10
408.7128672209
 20
67.2045490664
 30
0.0
 11
268.7128672209
 21
67.2045490664
 31
0.0
  0
LINE
  5
29C
330
220
100
AcDbEntity
  8
DV3_Default
  6
Continuous
 62
     7
 48
25.4
100
AcDbLine
 10
268.7128672209
 20
82.4645490664
 30
0.0
 11
408.7128672209
 21
82.4645490664
 31
0.0
  0
LINE
  5
29D
330
220
100
AcDbEntity
  8
DV3_Default
  6
Continuous
 62
     7
 48
25.4
100
AcDbLine
 10
408.7128672209
 20
97.7245490664
 30
0.0
 11
268.7128672209
 21
97.7245490664
 31
0.0
  0
LINE
  5
29E
330
220
100
AcDbEntity
  8
DV3_Default
  6
Continuous
 62
     7
 48
25.4
100
AcDbLine
 10
268.7128672209
 20
112.9845490664
 30
0.0
 11
408.7128672209
 21
112.9845490664
 31
0.0
  0
LINE
  5
29F
330
220
100
AcDbEntity
  8
DV3_Default
  6
Continuous
 62
     7
 48
25.4
100
AcDbLine
 10
408.7128672209
 20
127.992246503
 30
0.0
 11
268.7128672209
 21
127.992246503
 31
0.0
  0
LINE
  5
2A0
330
220
100
AcDbEntity
  8
DV3_Default
  6
Continuous
 62
     7
 48
25.4
100
AcDbLine
 10
296.7128672209
 20
36.6845490664
 30
0.0
 11
296.7128672209
 21
143.7845490664
 31
0.0
  0
LINE
  5
2A1
330
220
100
AcDbEntity
  8
DV3_Default
  6
Continuous
 62
     7
 48
25.4
100
AcDbLine
 10
324.7128672209
 20
143.7845490664
 30
0.0
 11
324.7128672209
 21
36.6845490664
 31
0.0
  0
LINE
  5
2A2
330
220
100
AcDbEntity
  8
DV3_Default
  6
Continuous
 62
     7
 48
25.4
100
AcDbLine
 10
352.7128672209
 20
36.6845490664
 30
0.0
 11
352.7128672209
 21
143.7845490664
 31
0.0
  0
LINE
  5
2A3
330
220
100
AcDbEntity
  8
DV3_Default
  6
Continuous
 62
     7
 48
25.4
100
AcDbLine
 10
380.7128672209
 20
143.7845490664
 30
0.0
 11
380.7128672209
 21
36.6845490664
 31
0.0
  0
TEXT
  5
2A4
330
220
100
AcDbEntity
  8
DV3_Default
  6
Continuous
 62
     7
 48
25.4
100
AcDbText
 10
259.5166263172
 20
141.4766281502
 30
0.0
 40
3.5
  1
140
  7
SEACAD_arial_ttf
 11
259.5166263172
 21
144.9766281502
 31
0.0
100
AcDbText
 73
     3
  0
ARC
  5
2A5
330
220
100
AcDbEntity
  8
DV3_Default
  6
Continuous
 62
     7
 48
25.4
100
AcDbCircle
 10
261.4607314669
 20
-102.142936068
 30
0.0
 40
171.2503318268638
100
AcDbArc
 50
61.028627232
 51
87.572903581
  0
LINE
  5
2A6
330
220
100
AcDbEntity
  8
DV3_Default
  6
HIDDEN2
 62
     7
 48
25.4
100
AcDbLine
 10
268.7128672209
 20
68.9537695631
 30
0.0
 11
394.7128672209
 21
68.9537695631
 31
0.0
  0
ARC
  5
2A7
330
220
100
AcDbEntity
  8
DV3_Default
  6
Continuous
 62
     7
 48
25.4
100
AcDbCircle
 10
260.9736892638
 20
-40.7796278461
 30
0.0
 40
172.9959139044074
100
AcDbArc
 50
39.3689811365
 51
87.4359494242
  0
ARC
  5
2A8
330
220
100
AcDbEntity
  8
DV3_Default
  6
Continuous
 62
     7
 48
25.4
100
AcDbCircle
 10
263.6011194092
 20
308.8349870103
 30
0.0
 40
273.3738994457878
100
AcDbArc
 50
287.193354913
 51
298.6596689283
  0
ARC
  5
2A9
330
220
100
AcDbEntity
  8
DV3_Default
  6
Continuous
 62
     7
 48
25.4
100
AcDbCircle
 10
263.1263928297
 20
-87.6470871117
 30
0.0
 40
163.975583758798
100
AcDbArc
 50
57.2775613229
 51
88.0476156916
  0
ARC
  5
2AA
330
220
100
AcDbEntity
  8
DV3_Default
  6
Continuous
 62
     7
 48
25.4
100
AcDbCircle
 10
256.2249541388
 20
-87.3199097377
 30
0.0
 40
173.1708990687378
100
AcDbArc
 50
53.8146488018
 51
85.8646267004
  0
ARC
  5
2AB
330
220
100
AcDbEntity
  8
DV3_Default
  6
Continuous
 62
     7
 48
25.4
100
AcDbCircle
 10
249.2282151217
 20
-97.9180099287
 30
0.0
 40
192.3957004212432
100
AcDbArc
 50
52.7522067585
 51
84.1874712239
  0
ARC
  5
2AC
330
220
100
AcDbEntity
  8
DV3_Default
  6
Continuous
 62
     7
 48
25.4
100
AcDbCircle
 10
258.287280286
 20
-72.5764247524
 30
0.0
 40
173.1194510165901
100
AcDbArc
 50
48.9102624205
 51
86.5474487191
  0
ARC
  5
2AD
330
220
100
AcDbEntity
  8
DV3_Default
  6
Continuous
 62
     7
 48
25.4
100
AcDbCircle
 10
258.9620307761
 20
-67.8671866001
 30
0.0
 40
175.3772068785642
100
AcDbArc
 50
47.133200859
 51
86.8127556265
  0
ARC
  5
2AE
330
220
100
AcDbEntity
  8
DV3_Default
  6
Continuous
 62
     7
 48
25.4
100
AcDbCircle
 10
256.0810903643
 20
-67.2123272711
 30
0.0
 40
182.975981653392
100
AcDbArc
 50
45.5801172538
 51
86.0414278932
  0
ARC
  5
2AF
330
220
100
AcDbEntity
  8
DV3_Default
  6
Continuous
 62
     7
 48
25.4
100
AcDbCircle
 10
259.939225936
 20
-49.697507495
 30
0.0
 40
173.6044528423961
100
AcDbArc
 50
41.8272819567
 51
87.1031454401
  0
LINE
  5
2B0
330
220
100
AcDbEntity
  8
DV3_Default
  6
HIDDEN2
 62
     7
 48
25.4
100
AcDbLine
 10
394.7128672209
 20
36.6845490664
 30
0.0
 11
394.7128672209
 21
68.9537695631
 31
0.0
  0
LINE
  5
2B1
330
220
100
AcDbEntity
  8
DV3_Default
  6
CENTER2
 62
     7
 48
25.4
100
AcDbLine
 10
226.1114717252
 20
146.7991895465
 30
0.0
 11
201.8841253064
 21
146.7991895465
 31
0.0
  0
LINE
  5
2B2
330
220
100
AcDbEntity
  8
DV3_Default
  6
Continuous
 62
     7
 48
25.4
100
AcDbLine
 10
220.9753039421
 20
140.2548621134
 30
0.0
 11
219.5753039421
 21
141.6548621134
 31
0.0
  0
LINE
  5
2B3
330
220
100
AcDbEntity
  8
DV3_Default
  6
Continuous
 62
     7
 48
25.4
100
AcDbLine
 10
220.9753039421
 20
154.2548621134
 30
0.0
 11
219.5753039421
 21
152.8548621134
 31
0.0
  0
LINE
  5
2B4
330
220
100
AcDbEntity
  8
DV3_Default
  6
Continuous
 62
     7
 48
25.4
100
AcDbLine
 10
213.9792123488
 20
152.8548621134
 30
0.0
 11
223.0792123488
 21
152.8548621134
 31
0.0
  0
LINE
  5
2B5
330
220
100
AcDbEntity
  8
DV3_Default
  6
Continuous
 62
     7
 48
25.4
100
AcDbLine
 10
213.9792123488
 20
141.6548621134
 30
0.0
 11
223.0792123488
 21
141.6548621134
 31
0.0
  0
TEXT
  5
2B6
330
220
100
AcDbEntity
  8
DV3_Default
  6
Continuous
 62
     7
 48
25.4
100
AcDbText
 10
259.2287731465
 20
131.1127360875
 30
0.0
 40
3.5
  1
126
  7
SEACAD_arial_ttf
 11
259.2287731465
 21
134.6127360875
 31
0.0
100
AcDbText
 73
     3
  0
TEXT
  5
2B7
330
220
100
AcDbEntity
  8
DV3_Default
  6
Continuous
 62
     7
 48
25.4
100
AcDbText
 10
403.2539349252
 20
31.2480694841
 30
0.0
 40
3.5
  1
5000
  7
SEACAD_arial_ttf
 11
403.2539349252
 21
34.7480694841
 31
0.0
100
AcDbText
 73
     3
  0
ENDBLK
  5
2B9
330
220
100
AcDbEntity
  8
0
100
AcDbBlockEnd
  0
BLOCK
  5
2C4
330
2BA
100
AcDbEntity
  8
0
100
AcDbBlockBegin
  2
GDimGGroup
 70
     0
 71
     0
 10
0.0
 20
0.0
 30
0.0
  3
GDimGGroup
  1

  0
HATCH
  5
2BC
330
2BA
100
AcDbEntity
  8
Default
  6
Continuous
 62
     7
 48
25.4
100
AcDbHatch
 10
0.0
 20
0.0
 30
0.0
210
0.0
220
0.0
230
1.0
  2
SOLID
 70
     1
 71
     0
 91
        1
 92
        1
 93
        3
 72
     1
 10
248.3450343132109
 20
136.5548623033579
 11
247.0117009165476
 21
136.5548623033579
 72
     1
 10
247.0117009165476
 20
136.5548623033579
 11
247.6783676148792
 21
132.5548621133681
 72
     1
 10
247.6783676148792
 20
132.5548621133681
 11
248.3450343132109
 21
136.5548623033579
 97
        0
 75
     0
 76
     1
 98
        0
  0
LWPOLYLINE
  5
2BD
330
2BA
100
AcDbEntity
  8
Default
  6
Continuous
 62
     7
 48
25.4
370
    20
100
AcDbPolyline
 90
        4
 70
     1
 43
0.00025
 10
248.3450343132
 20
136.5548623034
 10
247.6783676149
 20
132.5548621134
 10
247.0117009165
 20
136.5548623034
 10
248.3450343132
 20
136.5548623034
  0
HATCH
  5
2BE
330
2BA
100
AcDbEntity
  8
Default
  6
Continuous
 62
     7
 48
25.4
100
AcDbHatch
 10
0.0
 20
0.0
 30
0.0
210
0.0
220
0.0
230
1.0
  2
SOLID
 70
     1
 71
     0
 91
        1
 92
        1
 93
        3
 72
     1
 10
248.3450343132109
 20
157.9548622720655
 11
247.6783676148792
 21
161.9548624620553
 72
     1
 10
247.6783676148792
 20
161.9548624620553
 11
247.0117009165476
 21
157.9548622720655
 72
     1
 10
247.0117009165476
 20
157.9548622720655
 11
248.3450343132109
 21
157.9548622720655
 97
        0
 75
     0
 76
     1
 98
        0
  0
LWPOLYLINE
  5
2BF
330
2BA
100
AcDbEntity
  8
Default
  6
Continuous
 62
     7
 48
25.4
370
    20
100
AcDbPolyline
 90
        4
 70
     1
 43
0.00025
 10
248.3450343132
 20
157.9548622721
 10
247.6783676149
 20
161.9548624621
 10
247.0117009165
 20
157.9548622721
 10
248.3450343132
 20
157.9548622721
  0
LINE
  5
2C0
330
2BA
100
AcDbEntity
  8
Default
  6
Continuous
 62
     7
 48
25.4
100
AcDbLine
 10
219.5753038005
 20
132.5548621134
 30
0.0
 11
249.6783677099
 21
132.5548621134
 31
0.0
  0
LINE
  5
2C1
330
2BA
100
AcDbEntity
  8
Default
  6
Continuous
 62
     7
 48
25.4
100
AcDbLine
 10
219.5753039421
 20
161.9548621134
 30
0.0
 11
249.6783677099
 21
161.9548621134
 31
0.0
  0
LINE
  5
2C2
330
2BA
100
AcDbEntity
  8
Default
  6
Continuous
 62
     7
 48
25.4
100
AcDbLine
 10
247.6783676149
 20
132.5548621134
 30
0.0
 11
247.6783676149
 21
161.9548624621
 31
0.0
  0
TEXT
  5
2C3
330
2BA
100
AcDbEntity
  8
Default
  6
Continuous
 62
     7
 48
25.4
100
AcDbText
 10
246.6783676149
 20
144.1244275051
 30
0.0
 40
4.0
  1
42
 50
90.0
  7
SEACAD_arial_ttf
 11
242.6783676149
 21
144.1244275051
 31
0.0
100
AcDbText
 73
     3
  0
ENDBLK
  5
2C5
330
2BA
100
AcDbEntity
  8
0
100
AcDbBlockEnd
  0
BLOCK
  5
2D0
330
2C6
100
AcDbEntity
  8
0
100
AcDbBlockBegin
  2
GDimGGroup1
 70
     0
 71
     0
 10
0.0
 20
0.0
 30
0.0
  3
GDimGGroup1
  1

  0
HATCH
  5
2C8
330
2C6
100
AcDbEntity
  8
Default
  6
Continuous
 62
     7
 48
25.4
100
AcDbHatch
 10
0.0
 20
0.0
 30
0.0
210
0.0
220
0.0
230
1.0
  2
SOLID
 70
     1
 71
     0
 91
        1
 92
        1
 93
        3
 72
     1
 10
227.0792125387724
 20
175.6172926678723
 11
223.0792123487826
 21
174.9506259695407
 72
     1
 10
223.0792123487826
 20
174.9506259695407
 11
227.0792125387724
 21
174.2839592712091
 72
     1
 10
227.0792125387724
 20
174.2839592712091
 11
227.0792125387724
 21
175.6172926678723
 97
        0
 75
     0
 76
     1
 98
        0
  0
LWPOLYLINE
  5
2C9
330
2C6
100
AcDbEntity
  8
Default
  6
Continuous
 62
     7
 48
25.4
370
    20
100
AcDbPolyline
 90
        4
 70
     1
 43
0.00025
 10
227.0792125388
 20
175.6172926679
 10
223.0792123488
 20
174.9506259695
 10
227.0792125388
 20
174.2839592712
 10
227.0792125388
 20
175.6172926679
  0
HATCH
  5
2CA
330
2C6
100
AcDbEntity
  8
Default
  6
Continuous
 62
     7
 48
25.4
100
AcDbHatch
 10
0.0
 20
0.0
 30
0.0
210
0.0
220
0.0
230
1.0
  2
SOLID
 70
     1
 71
     0
 91
        1
 92
        1
 93
        3
 72
     1
 10
216.9753037521084
 20
175.6172926678723
 11
216.9753037521084
 21
174.2839592712091
 72
     1
 10
216.9753037521084
 20
174.2839592712091
 11
220.9753039420982
 21
174.9506259695407
 72
     1
 10
220.9753039420982
 20
174.9506259695407
 11
216.9753037521084
 21
175.6172926678723
 97
        0
 75
     0
 76
     1
 98
        0
  0
LWPOLYLINE
  5
2CB
330
2C6
100
AcDbEntity
  8
Default
  6
Continuous
 62
     7
 48
25.4
370
    20
100
AcDbPolyline
 90
        4
 70
     1
 43
0.00025
 10
216.9753037521
 20
175.6172926679
 10
220.9753039421
 20
174.9506259695
 10
216.9753037521
 20
174.2839592712
 10
216.9753037521
 20
175.6172926679
  0
LINE
  5
2CC
330
2C6
100
AcDbEntity
  8
Default
  6
Continuous
 62
     7
 48
25.4
100
AcDbLine
 10
223.0792123488
 20
147.2548621134
 30
0.0
 11
223.0792123488
 21
176.9506260645
 31
0.0
  0
LINE
  5
2CD
330
2C6
100
AcDbEntity
  8
Default
  6
Continuous
 62
     7
 48
25.4
100
AcDbLine
 10
220.9753039421
 20
160.5548621134
 30
0.0
 11
220.9753039421
 21
176.9506260645
 31
0.0
  0
LINE
  5
2CE
330
2C6
100
AcDbEntity
  8
Default
  6
Continuous
 62
     7
 48
25.4
100
AcDbLine
 10
235.2491005919
 20
174.9506259695
 30
0.0
 11
212.9753039813
 21
174.9506259695
 31
0.0
  0
TEXT
  5
2CF
330
2C6
100
AcDbEntity
  8
Default
  6
Continuous
 62
     7
 48
25.4
100
AcDbText
 10
230.7186656794
 20
175.9506259695
 30
0.0
 40
4.0
  1
3
  7
SEACAD_arial_ttf
 11
230.7186656794
 21
179.9506259695
 31
0.0
100
AcDbText
 73
     3
  0
ENDBLK
  5
2D1
330
2C6
100
AcDbEntity
  8
0
100
AcDbBlockEnd
  0
BLOCK
  5
2DC
330
2D2
100
AcDbEntity
  8
0
100
AcDbBlockBegin
  2
GDimGGroup2
 70
     0
 71
     0
 10
0.0
 20
0.0
 30
0.0
  3
GDimGGroup2
  1

  0
HATCH
  5
2D4
330
2D2
100
AcDbEntity
  8
Default
  6
Continuous
 62
     7
 48
25.4
100
AcDbHatch
 10
0.0
 20
0.0
 30
0.0
210
0.0
220
0.0
230
1.0
  2
SOLID
 70
     1
 71
     0
 91
        1
 92
        1
 93
        3
 72
     1
 10
224.975304132088
 20
175.6172929092711
 11
220.9753039420982
 21
174.9506262109395
 72
     1
 10
220.9753039420982
 20
174.9506262109395
 11
224.975304132088
 21
174.2839595126079
 72
     1
 10
224.975304132088
 20
174.2839595126079
 11
224.975304132088
 21
175.6172929092711
 97
        0
 75
     0
 76
     1
 98
        0
  0
LWPOLYLINE
  5
2D5
330
2D2
100
AcDbEntity
  8
Default
  6
Continuous
 62
     7
 48
25.4
370
    20
100
AcDbPolyline
 90
        4
 70
     1
 43
0.00025
 10
224.9753041321
 20
175.6172929093
 10
220.9753039421
 20
174.9506262109
 10
224.9753041321
 20
174.2839595126
 10
224.9753041321
 20
175.6172929093
  0
HATCH
  5
2D6
330
2D2
100
AcDbEntity
  8
Default
  6
Continuous
 62
     7
 48
25.4
100
AcDbHatch
 10
0.0
 20
0.0
 30
0.0
210
0.0
220
0.0
230
1.0
  2
SOLID
 70
     1
 71
     0
 91
        1
 92
        1
 93
        3
 72
     1
 10
215.5753037521084
 20
175.6172929092711
 11
215.5753037521084
 21
174.2839595126079
 72
     1
 10
215.5753037521084
 20
174.2839595126079
 11
219.5753039420982
 21
174.9506262109395
 72
     1
 10
219.5753039420982
 20
174.9506262109395
 11
215.5753037521084
 21
175.6172929092711
 97
        0
 75
     0
 76
     1
 98
        0
  0
LWPOLYLINE
  5
2D7
330
2D2
100
AcDbEntity
  8
Default
  6
Continuous
 62
     7
 48
25.4
370
    20
100
AcDbPolyline
 90
        4
 70
     1
 43
0.00025
 10
215.5753037521
 20
175.6172929093
 10
219.5753039421
 20
174.9506262109
 10
215.5753037521
 20
174.2839595126
 10
215.5753037521
 20
175.6172929093
  0
LINE
  5
2D8
330
2D2
100
AcDbEntity
  8
Default
  6
Continuous
 62
     7
 48
25.4
100
AcDbLine
 10
220.9753039421
 20
160.5548621134
 30
0.0
 11
220.9753039421
 21
176.9506263059
 31
0.0
  0
LINE
  5
2D9
330
2D2
100
AcDbEntity
  8
Default
  6
Continuous
 62
     7
 48
25.4
100
AcDbLine
 10
219.5753039421
 20
173.1548621134
 30
0.0
 11
219.5753039421
 21
176.9506263059
 31
0.0
  0
LINE
  5
2DA
330
2D2
100
AcDbEntity
  8
Default
  6
Continuous
 62
     7
 48
25.4
100
AcDbLine
 10
228.9753043221
 20
174.9506262109
 30
0.0
 11
210.0220098288
 21
174.9506262109
 31
0.0
  0
TEXT
  5
2DB
330
2D2
100
AcDbEntity
  8
Default
  6
Continuous
 62
     7
 48
25.4
100
AcDbText
 10
211.4220099587
 20
175.9506262109
 30
0.0
 40
4.0
  1
2
  7
SEACAD_arial_ttf
 11
211.4220099587
 21
179.9506262109
 31
0.0
100
AcDbText
 73
     3
  0
ENDBLK
  5
2DD
330
2D2
100
AcDbEntity
  8
0
100
AcDbBlockEnd
  0
BLOCK
  5
2E7
330
2DE
100
AcDbEntity
  8
0
100
AcDbBlockBegin
  2
GDimGGroup3
 70
     0
 71
     0
 10
0.0
 20
0.0
 30
0.0
  3
GDimGGroup3
  1

  0
HATCH
  5
2E0
330
2DE
100
AcDbEntity
  8
Default
  6
Continuous
 62
     7
 48
25.4
100
AcDbHatch
 10
0.0
 20
0.0
 30
0.0
210
0.0
220
0.0
230
1.0
  2
SOLID
 70
     1
 71
     0
 91
        1
 92
        1
 93
        3
 72
     1
 10
156.9459025724562
 20
215.0670882158418
 11
156.9459025724562
 21
216.4004216125051
 72
     1
 10
156.9459025724562
 20
216.4004216125051
 11
152.9459023824664
 21
215.7337549141735
 72
     1
 10
152.9459023824664
 20
215.7337549141735
 11
156.9459025724562
 21
215.0670882158418
 97
        0
 75
     0
 76
     1
 98
        0
  0
LWPOLYLINE
  5
2E1
330
2DE
100
AcDbEntity
  8
Default
  6
Continuous
 62
     7
 48
25.4
370
    20
100
AcDbPolyline
 90
        4
 70
     1
 43
0.00025
 10
156.9459025725
 20
215.0670882158
 10
152.9459023825
 20
215.7337549142
 10
156.9459025725
 20
216.4004216125
 10
156.9459025725
 20
215.0670882158
  0
HATCH
  5
2E2
330
2DE
100
AcDbEntity
  8
Default
  6
Continuous
 62
     7
 48
25.4
100
AcDbHatch
 10
0.0
 20
0.0
 30
0.0
210
0.0
220
0.0
230
1.0
  2
SOLID
 70
     1
 71
     0
 91
        1
 92
        1
 93
        3
 72
     1
 10
145.4411810971134
 20
215.0670882158418
 11
149.4411812871032
 21
215.7337549141735
 72
     1
 10
149.4411812871032
 20
215.7337549141735
 11
145.4411810971134
 21
216.4004216125051
 72
     1
 10
145.4411810971134
 20
216.4004216125051
 11
145.4411810971134
 21
215.0670882158418
 97
        0
 75
     0
 76
     1
 98
        0
  0
LWPOLYLINE
  5
2E3
330
2DE
100
AcDbEntity
  8
Default
  6
Continuous
 62
     7
 48
25.4
370
    20
100
AcDbPolyline
 90
        4
 70
     1
 43
0.00025
 10
145.4411810971
 20
215.0670882158
 10
149.4411812871
 20
215.7337549142
 10
145.4411810971
 20
216.4004216125
 10
145.4411810971
 20
215.0670882158
  0
LINE
  5
2E4
330
2DE
100
AcDbEntity
  8
Default
  6
Continuous
 62
     7
 48
25.4
100
AcDbLine
 10
152.9459023825
 20
223.1672219931
 30
0.0
 11
152.9459023825
 21
213.7337548192
 31
0.0
  0
LINE
  5
2E5
330
2DE
100
AcDbEntity
  8
Default
  6
Continuous
 62
     7
 48
25.4
100
AcDbLine
 10
162.0653180382
 20
215.7337549142
 30
0.0
 11
141.441181486
 21
215.7337549142
 31
0.0
  0
TEXT
  5
2E6
330
2DE
100
AcDbEntity
  8
Default
  6
Continuous
 62
     7
 48
25.4
100
AcDbText
 10
157.5348835914
 20
216.7337549142
 30
0.0
 40
4.0
  1
5
  7
SEACAD_arial_ttf
 11
157.5348835914
 21
220.7337549142
 31
0.0
100
AcDbText
 73
     3
  0
ENDBLK
  5
2E8
330
2DE
100
AcDbEntity
  8
0
100
AcDbBlockEnd
  0
BLOCK
  5
2F3
330
2E9
100
AcDbEntity
  8
0
100
AcDbBlockBegin
  2
GDimGGroup4
 70
     0
 71
     0
 10
0.0
 20
0.0
 30
0.0
  3
GDimGGroup4
  1

  0
HATCH
  5
2EB
330
2E9
100
AcDbEntity
  8
Default
  6
Continuous
 62
     7
 48
25.4
100
AcDbHatch
 10
0.0
 20
0.0
 30
0.0
210
0.0
220
0.0
230
1.0
  2
SOLID
 70
     1
 71
     0
 91
        1
 92
        1
 93
        3
 72
     1
 10
148.9459021924766
 20
200.7685676992377
 11
152.9459023824664
 21
201.4352343975693
 72
     1
 10
152.9459023824664
 20
201.4352343975693
 11
148.9459021924766
 21
202.1019010959009
 72
     1
 10
148.9459021924766
 20
202.1019010959009
 11
148.9459021924766
 21
200.7685676992377
 97
        0
 75
     0
 76
     1
 98
        0
  0
LWPOLYLINE
  5
2EC
330
2E9
100
AcDbEntity
  8
Default
  6
Continuous
 62
     7
 48
25.4
370
    20
100
AcDbPolyline
 90
        4
 70
     1
 43
0.00025
 10
148.9459021925
 20
200.7685676992
 10
152.9459023825
 20
201.4352343976
 10
148.9459021925
 20
202.1019010959
 10
148.9459021925
 20
200.7685676992
  0
HATCH
  5
2ED
330
2E9
100
AcDbEntity
  8
Default
  6
Continuous
 62
     7
 48
25.4
100
AcDbHatch
 10
0.0
 20
0.0
 30
0.0
210
0.0
220
0.0
230
1.0
  2
SOLID
 70
     1
 71
     0
 91
        1
 92
        1
 93
        3
 72
     1
 10
139.4459024979504
 20
200.7685676992377
 11
139.4459024979504
 21
202.1019010959009
 72
     1
 10
139.4459024979504
 20
202.1019010959009
 11
135.4459023079606
 21
201.4352343975693
 72
     1
 10
135.4459023079606
 20
201.4352343975693
 11
139.4459024979504
 21
200.7685676992377
 97
        0
 75
     0
 76
     1
 98
        0
  0
LWPOLYLINE
  5
2EE
330
2E9
100
AcDbEntity
  8
Default
  6
Continuous
 62
     7
 48
25.4
370
    20
100
AcDbPolyline
 90
        4
 70
     1
 43
0.00025
 10
139.445902498
 20
200.7685676992
 10
135.445902308
 20
201.4352343976
 10
139.445902498
 20
202.1019010959
 10
139.445902498
 20
200.7685676992
  0
LINE
  5
2EF
330
2E9
100
AcDbEntity
  8
Default
  6
Continuous
 62
     7
 48
25.4
100
AcDbLine
 10
152.9459023825
 20
223.1672219931
 30
0.0
 11
152.9459023825
 21
199.4352343026
 31
0.0
  0
LINE
  5
2F0
330
2E9
100
AcDbEntity
  8
Default
  6
Continuous
 62
     7
 48
25.4
100
AcDbLine
 10
135.4459023825
 20
222.8172219931
 30
0.0
 11
135.4459023825
 21
199.4352343026
 31
0.0
  0
LINE
  5
2F1
330
2E9
100
AcDbEntity
  8
Default
  6
Continuous
 62
     7
 48
25.4
100
AcDbLine
 10
152.9459023825
 20
201.4352343976
 30
0.0
 11
135.445902308
 21
201.4352343976
 31
0.0
  0
TEXT
  5
2F2
330
2E9
100
AcDbEntity
  8
Default
  6
Continuous
 62
     7
 48
25.4
100
AcDbText
 10
141.0654675626
 20
202.4352343976
 30
0.0
 40
4.0
  1
25
  7
SEACAD_arial_ttf
 11
141.0654675626
 21
206.4352343976
 31
0.0
100
AcDbText
 73
     3
  0
ENDBLK
  5
2F4
330
2E9
100
AcDbEntity
  8
0
100
AcDbBlockEnd
  0
BLOCK
  5
2FF
330
2F5
100
AcDbEntity
  8
0
100
AcDbBlockBegin
  2
GDimGGroup5
 70
     0
 71
     0
 10
0.0
 20
0.0
 30
0.0
  3
GDimGGroup5
  1

  0
HATCH
  5
2F7
330
2F5
100
AcDbEntity
  8
Default
  6
Continuous
 62
     7
 48
25.4
100
AcDbHatch
 10
0.0
 20
0.0
 30
0.0
210
0.0
220
0.0
230
1.0
  2
SOLID
 70
     1
 71
     0
 91
        1
 92
        1
 93
        3
 72
     1
 10
131.4459021924766
 20
188.2218480527838
 11
135.4459023824664
 21
188.8885147511154
 72
     1
 10
135.4459023824664
 20
188.8885147511154
 11
131.4459021924766
 21
189.555181449447
 72
     1
 10
131.4459021924766
 20
189.555181449447
 11
131.4459021924766
 21
188.2218480527838
 97
        0
 75
     0
 76
     1
 98
        0
  0
LWPOLYLINE
  5
2F8
330
2F5
100
AcDbEntity
  8
Default
  6
Continuous
 62
     7
 48
25.4
370
    20
100
AcDbPolyline
 90
        4
 70
     1
 43
0.00025
 10
131.4459021925
 20
188.2218480528
 10
135.4459023825
 20
188.8885147511
 10
131.4459021925
 20
189.5551814494
 10
131.4459021925
 20
188.2218480528
  0
HATCH
  5
2F9
330
2F5
100
AcDbEntity
  8
Default
  6
Continuous
 62
     7
 48
25.4
100
AcDbHatch
 10
0.0
 20
0.0
 30
0.0
210
0.0
220
0.0
230
1.0
  2
SOLID
 70
     1
 71
     0
 91
        1
 92
        1
 93
        3
 72
     1
 10
126.4959022192987
 20
188.2218480527838
 11
126.4959022192987
 21
189.555181449447
 72
     1
 10
126.4959022192987
 20
189.555181449447
 11
122.4959020293089
 21
188.8885147511154
 72
     1
 10
122.4959020293089
 20
188.8885147511154
 11
126.4959022192987
 21
188.2218480527838
 97
        0
 75
     0
 76
     1
 98
        0
  0
LWPOLYLINE
  5
2FA
330
2F5
100
AcDbEntity
  8
Default
  6
Continuous
 62
     7
 48
25.4
370
    20
100
AcDbPolyline
 90
        4
 70
     1
 43
0.00025
 10
126.4959022193
 20
188.2218480528
 10
122.4959020293
 20
188.8885147511
 10
126.4959022193
 20
189.5551814494
 10
126.4959022193
 20
188.2218480528
  0
LINE
  5
2FB
330
2F5
100
AcDbEntity
  8
Default
  6
Continuous
 62
     7
 48
25.4
100
AcDbLine
 10
135.4459023825
 20
222.8172219931
 30
0.0
 11
135.4459023825
 21
186.8885146561
 31
0.0
  0
LINE
  5
2FC
330
2F5
100
AcDbEntity
  8
Default
  6
Continuous
 62
     7
 48
25.4
100
AcDbLine
 10
122.4959023825
 20
248.4931615636
 30
0.0
 11
122.4959023825
 21
186.8885146561
 31
0.0
  0
LINE
  5
2FD
330
2F5
100
AcDbEntity
  8
Default
  6
Continuous
 62
     7
 48
25.4
100
AcDbLine
 10
135.4459023825
 20
188.8885147511
 30
0.0
 11
122.4959020293
 21
188.8885147511
 31
0.0
  0
TEXT
  5
2FE
330
2F5
100
AcDbEntity
  8
Default
  6
Continuous
 62
     7
 48
25.4
100
AcDbText
 10
123.4926413363
 20
189.8885147511
 30
0.0
 40
4.0
  1
18.5
  7
SEACAD_arial_ttf
 11
123.4926413363
 21
193.8885147511
 31
0.0
100
AcDbText
 73
     3
  0
ENDBLK
  5
300
330
2F5
100
AcDbEntity
  8
0
100
AcDbBlockEnd
  0
BLOCK
  5
30C
330
301
100
AcDbEntity
  8
0
100
AcDbBlockBegin
  2
GDimGGroup6
 70
     0
 71
     0
 10
0.0
 20
0.0
 30
0.0
  3
GDimGGroup6
  1

  0
HATCH
  5
303
330
301
100
AcDbEntity
  8
Default
  6
Continuous
 62
     7
 48
25.4
100
AcDbHatch
 10
0.0
 20
0.0
 30
0.0
210
0.0
220
0.0
230
1.0
  2
SOLID
 70
     1
 71
     0
 91
        1
 92
        1
 93
        3
 72
     1
 10
234.8759259773377
 20
244.2794637652292
 11
234.2092592790061
 21
248.279463955219
 72
     1
 10
234.2092592790061
 20
248.279463955219
 11
233.5425925806744
 21
244.2794637652292
 72
     1
 10
233.5425925806744
 20
244.2794637652292
 11
234.8759259773377
 21
244.2794637652292
 97
        0
 75
     0
 76
     1
 98
        0
  0
LWPOLYLINE
  5
304
330
301
100
AcDbEntity
  8
Default
  6
Continuous
 62
     7
 48
25.4
370
    20
100
AcDbPolyline
 90
        4
 70
     1
 43
0.00025
 10
234.8759259773
 20
244.2794637652
 10
234.209259279
 20
248.2794639552
 10
233.5425925807
 20
244.2794637652
 10
234.8759259773
 20
244.2794637652
  0
HATCH
  5
305
330
301
100
AcDbEntity
  8
Default
  6
Continuous
 62
     7
 48
25.4
100
AcDbHatch
 10
0.0
 20
0.0
 30
0.0
210
0.0
220
0.0
230
1.0
  2
SOLID
 70
     1
 71
     0
 91
        1
 92
        1
 93
        3
 72
     1
 10
234.8759259773377
 20
234.674980853702
 11
233.5425925806744
 21
234.674980853702
 72
     1
 10
233.5425925806744
 20
234.674980853702
 11
234.2092592790061
 21
230.6749806637122
 72
     1
 10
234.2092592790061
 20
230.6749806637122
 11
234.8759259773377
 21
234.674980853702
 97
        0
 75
     0
 76
     1
 98
        0
  0
LWPOLYLINE
  5
306
330
301
100
AcDbEntity
  8
Default
  6
Continuous
 62
     7
 48
25.4
370
    20
100
AcDbPolyline
 90
        4
 70
     1
 43
0.00025
 10
234.8759259773
 20
234.6749808537
 10
234.209259279
 20
230.6749806637
 10
233.5425925807
 20
234.6749808537
 10
234.8759259773
 20
234.6749808537
  0
LINE
  5
307
330
301
100
AcDbEntity
  8
Default
  6
Continuous
 62
     7
 48
25.4
100
AcDbLine
 10
219.4411812871
 20
248.2794639552
 30
0.0
 11
236.209259374
 21
248.2794639552
 31
0.0
  0
LINE
  5
308
330
301
100
AcDbEntity
  8
Default
  6
Continuous
 62
     7
 48
25.4
100
AcDbLine
 10
219.4411812871
 20
230.674980031
 30
0.0
 11
236.209259374
 21
230.674980031
 31
0.0
  0
LINE
  5
309
330
301
100
AcDbEntity
  8
Default
  6
Continuous
 62
     7
 48
25.4
100
AcDbLine
 10
234.209259279
 20
266.0350506092
 30
0.0
 11
234.209259279
 21
230.6749806637
 31
0.0
  0
TEXT
  5
30A
330
301
100
AcDbEntity
  8
Default
  6
Continuous
 62
     7
 48
25.4
100
AcDbText
 10
233.209259279
 20
258.3741814581
 30
0.0
 40
4.0
  1
25
 50
90.0
  7
SEACAD_arial_ttf
 11
229.209259279
 21
258.3741814581
 31
0.0
100
AcDbText
 73
     3
  0
TEXT
  5
30B
330
301
100
AcDbEntity
  8
Default
  6
Continuous
 62
     7
 48
25.4
100
AcDbText
 10
233.209259279
 20
251.0127779493
 30
0.0
 40
4.0
  1
O
 50
90.0
  7
SEACAD_semeca1_ttf
 11
229.209259279
 21
251.0127779493
 31
0.0
100
AcDbText
 73
     3
  0
ENDBLK
  5
30D
330
301
100
AcDbEntity
  8
0
100
AcDbBlockEnd
  0
BLOCK
  5
319
330
30E
100
AcDbEntity
  8
0
100
AcDbBlockBegin
  2
GDimGGroup7
 70
     0
 71
     0
 10
0.0
 20
0.0
 30
0.0
  3
GDimGGroup7
  1

  0
HATCH
  5
310
330
30E
100
AcDbEntity
  8
Default
  6
Continuous
 62
     7
 48
25.4
100
AcDbHatch
 10
0.0
 20
0.0
 30
0.0
210
0.0
220
0.0
230
1.0
  2
SOLID
 70
     1
 71
     0
 91
        1
 92
        1
 93
        3
 72
     1
 10
17.18300693934992
 20
214.5672221831173
 11
17.84967363768156
 21
210.5672219931275
 72
     1
 10
17.84967363768156
 20
210.5672219931275
 11
18.51634033601319
 21
214.5672221831173
 72
     1
 10
18.51634033601319
 20
214.5672221831173
 11
17.18300693934992
 21
214.5672221831173
 97
        0
 75
     0
 76
     1
 98
        0
  0
LWPOLYLINE
  5
311
330
30E
100
AcDbEntity
  8
Default
  6
Continuous
 62
     7
 48
25.4
370
    20
100
AcDbPolyline
 90
        4
 70
     1
 43
0.00025
 10
17.1830069393
 20
214.5672221831
 10
17.8496736377
 20
210.5672219931
 10
18.516340336
 20
214.5672221831
 10
17.1830069393
 20
214.5672221831
  0
HATCH
  5
312
330
30E
100
AcDbEntity
  8
Default
  6
Continuous
 62
     7
 48
25.4
100
AcDbHatch
 10
0.0
 20
0.0
 30
0.0
210
0.0
220
0.0
230
1.0
  2
SOLID
 70
     1
 71
     0
 91
        1
 92
        1
 93
        3
 72
     1
 10
17.18300693934992
 20
384.3672215170353
 11
18.51634033601319
 21
384.3672215170353
 72
     1
 10
18.51634033601319
 20
384.3672215170353
 11
17.84967363768156
 21
388.3672217070251
 72
     1
 10
17.84967363768156
 20
388.3672217070251
 11
17.18300693934992
 21
384.3672215170353
 97
        0
 75
     0
 76
     1
 98
        0
  0
LWPOLYLINE
  5
313
330
30E
100
AcDbEntity
  8
Default
  6
Continuous
 62
     7
 48
25.4
370
    20
100
AcDbPolyline
 90
        4
 70
     1
 43
0.00025
 10
17.1830069393
 20
384.367221517
 10
17.8496736377
 20
388.367221707
 10
18.516340336
 20
384.367221517
 10
17.1830069393
 20
384.367221517
  0
LINE
  5
314
330
30E
100
AcDbEntity
  8
Default
  6
Continuous
 62
     7
 48
25.4
100
AcDbLine
 10
150.8411812871
 20
210.5672219931
 30
0.0
 11
15.8496735427
 21
210.5672219931
 31
0.0
  0
LINE
  5
315
330
30E
100
AcDbEntity
  8
Default
  6
Continuous
 62
     7
 48
25.4
100
AcDbLine
 10
150.8411812871
 20
388.3672219931
 30
0.0
 11
15.8496735427
 21
388.3672219931
 31
0.0
  0
LINE
  5
316
330
30E
100
AcDbEntity
  8
Default
  6
Continuous
 62
     7
 48
25.4
100
AcDbLine
 10
17.8496736377
 20
210.5672219931
 30
0.0
 11
17.8496736377
 21
388.367221707
 31
0.0
  0
TEXT
  5
317
330
30E
100
AcDbEntity
  8
Default
  6
Continuous
 62
     7
 48
25.4
100
AcDbText
 10
16.8496736377
 20
298.4522714305
 30
0.0
 40
4.0
  1
254
 50
90.0
  7
SEACAD_arial_ttf
 11
12.8496736377
 21
298.4522714305
 31
0.0
100
AcDbText
 73
     3
  0
TEXT
  5
318
330
30E
100
AcDbEntity
  8
Default
  6
Continuous
 62
     7
 48
25.4
100
AcDbText
 10
16.8496736377
 20
291.0908679218
 30
0.0
 40
4.0
  1
O
 50
90.0
  7
SEACAD_semeca1_ttf
 11
12.8496736377
 21
291.0908679218
 31
0.0
100
AcDbText
 73
     3
  0
ENDBLK
  5
31A
330
30E
100
AcDbEntity
  8
0
100
AcDbBlockEnd
  0
BLOCK
  5
326
330
31B
100
AcDbEntity
  8
0
100
AcDbBlockBegin
  2
GDimGGroup8
 70
     0
 71
     0
 10
0.0
 20
0.0
 30
0.0
  3
GDimGGroup8
  1

  0
HATCH
  5
31D
330
31B
100
AcDbEntity
  8
Default
  6
Continuous
 62
     7
 48
25.4
100
AcDbHatch
 10
0.0
 20
0.0
 30
0.0
210
0.0
220
0.0
230
1.0
  2
SOLID
 70
     1
 71
     0
 91
        1
 92
        1
 93
        3
 72
     1
 10
76.77027802989699
 20
266.2359721831172
 11
77.43694472822863
 21
262.2359719931274
 72
     1
 10
77.43694472822863
 20
262.2359719931274
 11
78.10361142656026
 21
266.2359721831172
 72
     1
 10
78.10361142656026
 20
266.2359721831172
 11
76.77027802989699
 21
266.2359721831172
 97
        0
 75
     0
 76
     1
 98
        0
  0
LWPOLYLINE
  5
31E
330
31B
100
AcDbEntity
  8
Default
  6
Continuous
 62
     7
 48
25.4
370
    20
100
AcDbPolyline
 90
        4
 70
     1
 43
0.00025
 10
76.7702780299
 20
266.2359721831
 10
77.4369447282
 20
262.2359719931
 10
78.1036114266
 20
266.2359721831
 10
76.7702780299
 20
266.2359721831
  0
HATCH
  5
31F
330
31B
100
AcDbEntity
  8
Default
  6
Continuous
 62
     7
 48
25.4
100
AcDbHatch
 10
0.0
 20
0.0
 30
0.0
210
0.0
220
0.0
230
1.0
  2
SOLID
 70
     1
 71
     0
 91
        1
 92
        1
 93
        3
 72
     1
 10
76.77027802989699
 20
332.6984749979466
 11
78.10361142656026
 21
332.6984749979466
 72
     1
 10
78.10361142656026
 20
332.6984749979466
 11
77.43694472822863
 21
336.6984751879364
 72
     1
 10
77.43694472822863
 20
336.6984751879364
 11
76.77027802989699
 21
332.6984749979466
 97
        0
 75
     0
 76
     1
 98
        0
  0
LWPOLYLINE
  5
320
330
31B
100
AcDbEntity
  8
Default
  6
Continuous
 62
     7
 48
25.4
370
    20
100
AcDbPolyline
 90
        4
 70
     1
 43
0.00025
 10
76.7702780299
 20
332.6984749979
 10
77.4369447282
 20
336.6984751879
 10
78.1036114266
 20
332.6984749979
 10
76.7702780299
 20
332.6984749979
  0
LINE
  5
321
330
31B
100
AcDbEntity
  8
Default
  6
Continuous
 62
     7
 48
25.4
100
AcDbLine
 10
135.4459023825
 20
262.2359719931
 30
0.0
 11
75.4369446332
 21
262.2359719931
 31
0.0
  0
LINE
  5
322
330
31B
100
AcDbEntity
  8
Default
  6
Continuous
 62
     7
 48
25.4
100
AcDbLine
 10
135.4459023825
 20
336.6984719931
 30
0.0
 11
75.4369446332
 21
336.6984719931
 31
0.0
  0
LINE
  5
323
330
31B
100
AcDbEntity
  8
Default
  6
Continuous
 62
     7
 48
25.4
100
AcDbLine
 10
77.4369447282
 20
262.2359719931
 30
0.0
 11
77.4369447282
 21
336.6984751879
 31
0.0
  0
TEXT
  5
324
330
31B
100
AcDbEntity
  8
Default
  6
Continuous
 62
     7
 48
25.4
100
AcDbText
 10
76.4369447282
 20
292.9740123014
 30
0.0
 40
4.0
  1
106.375
 50
90.0
  7
SEACAD_arial_ttf
 11
72.4369447282
 21
292.9740123014
 31
0.0
100
AcDbText
 73
     3
  0
TEXT
  5
325
330
31B
100
AcDbEntity
  8
Default
  6
Continuous
 62
     7
 48
25.4
100
AcDbText
 10
76.4369447282
 20
285.6126087927
 30
0.0
 40
4.0
  1
O
 50
90.0
  7
SEACAD_semeca1_ttf
 11
72.4369447282
 21
285.6126087927
 31
0.0
100
AcDbText
 73
     3
  0
ENDBLK
  5
327
330
31B
100
AcDbEntity
  8
0
100
AcDbBlockEnd
  0
BLOCK
  5
332
330
328
100
AcDbEntity
  8
0
100
AcDbBlockBegin
  2
GDimGGroup9
 70
     0
 71
     0
 10
0.0
 20
0.0
 30
0.0
  3
GDimGGroup9
  1

  0
HATCH
  5
32A
330
328
100
AcDbEntity
  8
Default
  6
Continuous
 62
     7
 48
25.4
100
AcDbHatch
 10
0.0
 20
0.0
 30
0.0
210
0.0
220
0.0
230
1.0
  2
SOLID
 70
     1
 71
     0
 91
        1
 92
        1
 93
        3
 72
     1
 10
332.2097909919504
 20
385.0672218031377
 11
331.5431242936188
 21
389.0672219931275
 72
     1
 10
331.5431242936188
 20
389.0672219931275
 11
330.8764575952871
 21
385.0672218031377
 72
     1
 10
330.8764575952871
 20
385.0672218031377
 11
332.2097909919504
 21
385.0672218031377
 97
        0
 75
     0
 76
     1
 98
        0
  0
LWPOLYLINE
  5
32B
330
328
100
AcDbEntity
  8
Default
  6
Continuous
 62
     7
 48
25.4
370
    20
100
AcDbPolyline
 90
        4
 70
     1
 43
0.00025
 10
332.209790992
 20
385.0672218031
 10
331.5431242936
 20
389.0672219931
 10
330.8764575953
 20
385.0672218031
 10
332.209790992
 20
385.0672218031
  0
HATCH
  5
32C
330
328
100
AcDbEntity
  8
Default
  6
Continuous
 62
     7
 48
25.4
100
AcDbHatch
 10
0.0
 20
0.0
 30
0.0
210
0.0
220
0.0
230
1.0
  2
SOLID
 70
     1
 71
     0
 91
        1
 92
        1
 93
        3
 72
     1
 10
332.2097909919504
 20
316.0672226003498
 11
330.8764575952871
 21
316.0672226003498
 72
     1
 10
330.8764575952871
 20
316.0672226003498
 11
331.5431242936188
 21
312.06722241036
 72
     1
 10
331.5431242936188
 20
312.06722241036
 11
332.2097909919504
 21
316.0672226003498
 97
        0
 75
     0
 76
     1
 98
        0
  0
LWPOLYLINE
  5
32D
330
328
100
AcDbEntity
  8
Default
  6
Continuous
 62
     7
 48
25.4
370
    20
100
AcDbPolyline
 90
        4
 70
     1
 43
0.00025
 10
332.209790992
 20
316.0672226003
 10
331.5431242936
 20
312.0672224104
 10
330.8764575953
 20
316.0672226003
 10
332.209790992
 20
316.0672226003
  0
LINE
  5
32E
330
328
100
AcDbEntity
  8
Default
  6
Continuous
 62
     7
 48
25.4
100
AcDbLine
 10
249.6811812871
 20
389.0672219931
 30
0.0
 11
333.5431243886
 21
389.0672219931
 31
0.0
  0
LINE
  5
32F
330
328
100
AcDbEntity
  8
Default
  6
Continuous
 62
     7
 48
25.4
100
AcDbLine
 10
249.6811812871
 20
312.0672219931
 30
0.0
 11
333.5431243886
 21
312.0672219931
 31
0.0
  0
LINE
  5
330
330
328
100
AcDbEntity
  8
Default
  6
Continuous
 62
     7
 48
25.4
100
AcDbLine
 10
331.5431242936
 20
389.0672219931
 30
0.0
 11
331.5431242936
 21
312.0672224104
 31
0.0
  0
TEXT
  5
331
330
328
100
AcDbEntity
  8
Default
  6
Continuous
 62
     7
 48
25.4
100
AcDbText
 10
330.5431242936
 20
345.8715700278
 30
0.0
 40
4.0
  1
110
 50
90.0
  7
SEACAD_arial_ttf
 11
326.5431242936
 21
345.8715700278
 31
0.0
100
AcDbText
 73
     3
  0
ENDBLK
  5
333
330
328
100
AcDbEntity
  8
0
100
AcDbBlockEnd
  0
BLOCK
  5
33E
330
334
100
AcDbEntity
  8
0
100
AcDbBlockBegin
  2
GDimGGroup10
 70
     0
 71
     0
 10
0.0
 20
0.0
 30
0.0
  3
GDimGGroup10
  1

  0
HATCH
  5
336
330
334
100
AcDbEntity
  8
Default
  6
Continuous
 62
     7
 48
25.4
100
AcDbHatch
 10
0.0
 20
0.0
 30
0.0
210
0.0
220
0.0
230
1.0
  2
SOLID
 70
     1
 71
     0
 91
        1
 92
        1
 93
        3
 72
     1
 10
306.0862449280504
 20
385.0672218031377
 11
305.4195782297188
 21
389.0672219931275
 72
     1
 10
305.4195782297188
 20
389.0672219931275
 11
304.7529115313871
 21
385.0672218031377
 72
     1
 10
304.7529115313871
 20
385.0672218031377
 11
306.0862449280504
 21
385.0672218031377
 97
        0
 75
     0
 76
     1
 98
        0
  0
LWPOLYLINE
  5
337
330
334
100
AcDbEntity
  8
Default
  6
Continuous
 62
     7
 48
25.4
370
    20
100
AcDbPolyline
 90
        4
 70
     1
 43
0.00025
 10
306.0862449281
 20
385.0672218031
 10
305.4195782297
 20
389.0672219931
 10
304.7529115314
 20
385.0672218031
 10
306.0862449281
 20
385.0672218031
  0
HATCH
  5
338
330
334
100
AcDbEntity
  8
Default
  6
Continuous
 62
     7
 48
25.4
100
AcDbHatch
 10
0.0
 20
0.0
 30
0.0
210
0.0
220
0.0
230
1.0
  2
SOLID
 70
     1
 71
     0
 91
        1
 92
        1
 93
        3
 72
     1
 10
306.0862449280504
 20
372.0672224662393
 11
304.7529115313871
 21
372.0672224662393
 72
     1
 10
304.7529115313871
 20
372.0672224662393
 11
305.4195782297188
 21
368.0672222762495
 72
     1
 10
305.4195782297188
 20
368.0672222762495
 11
306.0862449280504
 21
372.0672224662393
 97
        0
 75
     0
 76
     1
 98
        0
  0
LWPOLYLINE
  5
339
330
334
100
AcDbEntity
  8
Default
  6
Continuous
 62
     7
 48
25.4
370
    20
100
AcDbPolyline
 90
        4
 70
     1
 43
0.00025
 10
306.0862449281
 20
372.0672224662
 10
305.4195782297
 20
368.0672222762
 10
304.7529115314
 20
372.0672224662
 10
306.0862449281
 20
372.0672224662
  0
LINE
  5
33A
330
334
100
AcDbEntity
  8
Default
  6
Continuous
 62
     7
 48
25.4
100
AcDbLine
 10
249.6811812871
 20
389.0672219931
 30
0.0
 11
307.4195783247
 21
389.0672219931
 31
0.0
  0
LINE
  5
33B
330
334
100
AcDbEntity
  8
Default
  6
Continuous
 62
     7
 48
25.4
100
AcDbLine
 10
252.1311812871
 20
368.0672219931
 30
0.0
 11
307.4195783247
 21
368.0672219931
 31
0.0
  0
LINE
  5
33C
330
334
100
AcDbEntity
  8
Default
  6
Continuous
 62
     7
 48
25.4
100
AcDbLine
 10
305.4195782297
 20
389.0672219931
 30
0.0
 11
305.4195782297
 21
368.0672222762
 31
0.0
  0
TEXT
  5
33D
330
334
100
AcDbEntity
  8
Default
  6
Continuous
 62
     7
 48
25.4
100
AcDbText
 10
304.4195782297
 20
375.4367873521
 30
0.0
 40
4.0
  1
30
 50
90.0
  7
SEACAD_arial_ttf
 11
300.4195782297
 21
375.4367873521
 31
0.0
100
AcDbText
 73
     3
  0
ENDBLK
  5
33F
330
334
100
AcDbEntity
  8
0
100
AcDbBlockEnd
  0
BLOCK
  5
34A
330
340
100
AcDbEntity
  8
0
100
AcDbBlockBegin
  2
GDimGGroup11
 70
     0
 71
     0
 10
0.0
 20
0.0
 30
0.0
  3
GDimGGroup11
  1

  0
HATCH
  5
342
330
340
100
AcDbEntity
  8
Default
  6
Continuous
 62
     7
 48
25.4
100
AcDbHatch
 10
0.0
 20
0.0
 30
0.0
210
0.0
220
0.0
230
1.0
  2
SOLID
 70
     1
 71
     0
 91
        1
 92
        1
 93
        3
 72
     1
 10
306.0862444333318
 20
364.0672218031377
 11
305.4195777350002
 21
368.0672219931275
 72
     1
 10
305.4195777350002
 20
368.0672219931275
 11
304.7529110366685
 21
364.0672218031377
 72
     1
 10
304.7529110366685
 20
364.0672218031377
 11
306.0862444333318
 21
364.0672218031377
 97
        0
 75
     0
 76
     1
 98
        0
  0
LWPOLYLINE
  5
343
330
340
100
AcDbEntity
  8
Default
  6
Continuous
 62
     7
 48
25.4
370
    20
100
AcDbPolyline
 90
        4
 70
     1
 43
0.00025
 10
306.0862444333
 20
364.0672218031
 10
305.419577735
 20
368.0672219931
 10
304.7529110367
 20
364.0672218031
 10
306.0862444333
 20
364.0672218031
  0
HATCH
  5
344
330
340
100
AcDbEntity
  8
Default
  6
Continuous
 62
     7
 48
25.4
100
AcDbHatch
 10
0.0
 20
0.0
 30
0.0
210
0.0
220
0.0
230
1.0
  2
SOLID
 70
     1
 71
     0
 91
        1
 92
        1
 93
        3
 72
     1
 10
306.0862444333318
 20
351.0670641414017
 11
304.7529110366685
 21
351.0670641414017
 72
     1
 10
304.7529110366685
 20
351.0670641414017
 11
305.4195777350002
 21
347.0670639514119
 72
     1
 10
305.4195777350002
 20
347.0670639514119
 11
306.0862444333318
 21
351.0670641414017
 97
        0
 75
     0
 76
     1
 98
        0
  0
LWPOLYLINE
  5
345
330
340
100
AcDbEntity
  8
Default
  6
Continuous
 62
     7
 48
25.4
370
    20
100
AcDbPolyline
 90
        4
 70
     1
 43
0.00025
 10
306.0862444333
 20
351.0670641414
 10
305.419577735
 20
347.0670639514
 10
304.7529110367
 20
351.0670641414
 10
306.0862444333
 20
351.0670641414
  0
LINE
  5
346
330
340
100
AcDbEntity
  8
Default
  6
Continuous
 62
     7
 48
25.4
100
AcDbLine
 10
252.1311812871
 20
368.0672219931
 30
0.0
 11
307.41957783
 21
368.0672219931
 31
0.0
  0
LINE
  5
347
330
340
100
AcDbEntity
  8
Default
  6
Continuous
 62
     7
 48
25.4
100
AcDbLine
 10
252.1311812871
 20
347.0670645097
 30
0.0
 11
307.41957783
 21
347.0670645097
 31
0.0
  0
LINE
  5
348
330
340
100
AcDbEntity
  8
Default
  6
Continuous
 62
     7
 48
25.4
100
AcDbLine
 10
305.419577735
 20
368.0672219931
 30
0.0
 11
305.419577735
 21
347.0670639514
 31
0.0
  0
TEXT
  5
349
330
340
100
AcDbEntity
  8
Default
  6
Continuous
 62
     7
 48
25.4
100
AcDbText
 10
304.419577735
 20
354.4367081897
 30
0.0
 40
4.0
  1
30
 50
90.0
  7
SEACAD_arial_ttf
 11
300.419577735
 21
354.4367081897
 31
0.0
100
AcDbText
 73
     3
  0
ENDBLK
  5
34B
330
340
100
AcDbEntity
  8
0
100
AcDbBlockEnd
  0
BLOCK
  5
356
330
34C
100
AcDbEntity
  8
0
100
AcDbBlockBegin
  2
GDimGGroup12
 70
     0
 71
     0
 10
0.0
 20
0.0
 30
0.0
  3
GDimGGroup12
  1

  0
HATCH
  5
34E
330
34C
100
AcDbEntity
  8
Default
  6
Continuous
 62
     7
 48
25.4
100
AcDbHatch
 10
0.0
 20
0.0
 30
0.0
210
0.0
220
0.0
230
1.0
  2
SOLID
 70
     1
 71
     0
 91
        1
 92
        1
 93
        3
 72
     1
 10
451.4437531158561
 20
402.0379093560322
 11
447.4437529258663
 21
401.3712426577005
 72
     1
 10
447.4437529258663
 20
401.3712426577005
 11
451.4437531158561
 21
400.7045759593689
 72
     1
 10
451.4437531158561
 20
400.7045759593689
 11
451.4437531158561
 21
402.0379093560322
 97
        0
 75
     0
 76
     1
 98
        0
  0
LWPOLYLINE
  5
34F
330
34C
100
AcDbEntity
  8
Default
  6
Continuous
 62
     7
 48
25.4
370
    20
100
AcDbPolyline
 90
        4
 70
     1
 43
0.00025
 10
451.4437531159
 20
402.037909356
 10
447.4437529259
 20
401.3712426577
 10
451.4437531159
 20
400.7045759594
 10
451.4437531159
 20
402.037909356
  0
HATCH
  5
350
330
34C
100
AcDbEntity
  8
Default
  6
Continuous
 62
     7
 48
25.4
100
AcDbHatch
 10
0.0
 20
0.0
 30
0.0
210
0.0
220
0.0
230
1.0
  2
SOLID
 70
     1
 71
     0
 91
        1
 92
        1
 93
        3
 72
     1
 10
471.4437536001438
 20
402.0379093560322
 11
471.4437536001438
 21
400.7045759593689
 72
     1
 10
471.4437536001438
 20
400.7045759593689
 11
475.4437537901336
 21
401.3712426577005
 72
     1
 10
475.4437537901336
 20
401.3712426577005
 11
471.4437536001438
 21
402.0379093560322
 97
        0
 75
     0
 76
     1
 98
        0
  0
LWPOLYLINE
  5
351
330
34C
100
AcDbEntity
  8
Default
  6
Continuous
 62
     7
 48
25.4
370
    20
100
AcDbPolyline
 90
        4
 70
     1
 43
0.00025
 10
471.4437536001
 20
402.037909356
 10
475.4437537901
 20
401.3712426577
 10
471.4437536001
 20
400.7045759594
 10
471.4437536001
 20
402.037909356
  0
LINE
  5
352
330
34C
100
AcDbEntity
  8
Default
  6
Continuous
 62
     7
 48
25.4
100
AcDbLine
 10
447.4437529259
 20
386.1394293536
 30
0.0
 11
447.4437529259
 21
403.3712427527
 31
0.0
  0
LINE
  5
353
330
34C
100
AcDbEntity
  8
Default
  6
Continuous
 62
     7
 48
25.4
100
AcDbLine
 10
475.4437529259
 20
386.1394293536
 30
0.0
 11
475.4437529259
 21
403.3712427527
 31
0.0
  0
LINE
  5
354
330
34C
100
AcDbEntity
  8
Default
  6
Continuous
 62
     7
 48
25.4
100
AcDbLine
 10
447.4437529259
 20
401.3712426577
 30
0.0
 11
475.4437537901
 21
401.3712426577
 31
0.0
  0
TEXT
  5
355
330
34C
100
AcDbEntity
  8
Default
  6
Continuous
 62
     7
 48
25.4
100
AcDbText
 10
458.3133185754
 20
402.3712426577
 30
0.0
 40
4.0
  1
40
  7
SEACAD_arial_ttf
 11
458.3133185754
 21
406.3712426577
 31
0.0
100
AcDbText
 73
     3
  0
ENDBLK
  5
357
330
34C
100
AcDbEntity
  8
0
100
AcDbBlockEnd
  0
BLOCK
  5
364
330
358
100
AcDbEntity
  8
0
100
AcDbBlockBegin
  2
GDimGGroup13
 70
     0
 71
     0
 10
0.0
 20
0.0
 30
0.0
  3
GDimGGroup13
  1

  0
HATCH
  5
35A
330
358
100
AcDbEntity
  8
Default
  6
Continuous
 62
     7
 48
25.4
100
AcDbHatch
 10
0.0
 20
0.0
 30
0.0
210
0.0
220
0.0
230
1.0
  2
SOLID
 70
     1
 71
     0
 91
        1
 92
        1
 93
        3
 72
     1
 10
77.86412889046169
 20
347.8194315470587
 11
77.89851924751137
 21
343.7644021624642
 72
     1
 10
77.89851924751137
 20
343.7644021624642
 11
79.18113249395448
 21
347.6113943988265
 72
     1
 10
79.18113249395448
 20
347.6113943988265
 11
77.86412889046169
 21
347.8194315470587
 97
        0
 75
     0
 76
     1
 98
        0
  0
LWPOLYLINE
  5
35B
330
358
100
AcDbEntity
  8
Default
  6
Continuous
 62
     7
 48
25.4
370
    20
100
AcDbPolyline
 90
        4
 70
     1
 43
0.00025
 10
77.8641288905
 20
347.8194315471
 10
77.8985192475
 20
343.7644021625
 10
79.181132494
 20
347.6113943988
 10
77.8641288905
 20
347.8194315471
  0
HATCH
  5
35C
330
358
100
AcDbEntity
  8
Default
  6
Continuous
 62
     7
 48
25.4
100
AcDbHatch
 10
0.0
 20
0.0
 30
0.0
210
0.0
220
0.0
230
1.0
  2
SOLID
 70
     1
 71
     0
 91
        1
 92
        1
 93
        3
 72
     1
 10
78.27057087493759
 20
332.7238434206629
 11
77.46634844455438
 21
336.6984719931274
 72
     1
 10
77.46634844455438
 20
336.6984719931274
 11
76.93803066600948
 21
332.6778593120232
 72
     1
 10
76.93803066600947
 20
332.6778593120231
 11
78.27057087493759
 21
332.7238434206629
 97
        0
 75
     0
 76
     1
 98
        0
  0
LWPOLYLINE
  5
35D
330
358
100
AcDbEntity
  8
Default
  6
Continuous
 62
     7
 48
25.4
370
    20
100
AcDbPolyline
 90
        4
 70
     1
 43
0.00025
 10
78.2705708749
 20
332.7238434207
 10
77.4663484446
 20
336.6984719931
 10
76.938030666
 20
332.677859312
 10
78.2705708749
 20
332.7238434207
  0
LINE
  5
35E
330
358
100
AcDbEntity
  8
Default
  6
Continuous
 62
     7
 48
25.4
100
AcDbLine
 10
149.4459022645
 20
334.979488155
 30
0.0
 11
75.9134266188
 21
344.0081408892
 31
0.0
  0
LINE
  5
35F
330
358
100
AcDbEntity
  8
Default
  6
Continuous
 62
     7
 48
25.4
100
AcDbLine
 10
135.4459023825
 20
336.6984719931
 30
0.0
 11
75.4663481167
 21
336.6984719931
 31
0.0
  0
ARC
  5
360
330
358
100
AcDbEntity
  8
Default
  6
Continuous
 62
     7
 48
25.4
100
AcDbCircle
 10
135.4459023825
 20
336.6984719931
 30
0.0
 40
57.97955393791215
100
AcDbArc
 50
165.0943471725
 51
180.0000000525
  0
ARC
  5
361
330
358
100
AcDbEntity
  8
Default
  6
Continuous
 62
     7
 48
25.4
100
AcDbCircle
 10
135.4459023825
 20
336.6984719931
 30
0.0
 40
57.97955393790902
100
AcDbArc
 50
180.0
 51
187.9056528275
  0
TEXT
  5
362
330
358
100
AcDbEntity
  8
Default
  6
Continuous
 62
     7
 48
25.4
100
AcDbText
 10
75.9467609591
 20
330.0052800502
 30
0.0
 40
4.0
  1
7°
 50
86.5
  7
SEACAD_arial_ttf
 11
71.9542217654
 21
330.2494742083
 31
0.0
100
AcDbText
 73
     3
  0
TEXT
  5
363
330
358
100
AcDbEntity
  8
Default
  6
Continuous
 62
     7
 48
25.4
100
AcDbText
 10
76.4468281264
 20
338.1813059642
 30
0.0
 40
4.0
  1
7'30"
 50
86.5
  7
SEACAD_arial_ttf
 11
72.4542889328
 21
338.4255001223
 31
0.0
100
AcDbText
 73
     3
  0
ENDBLK
  5
365
330
358
100
AcDbEntity
  8
0
100
AcDbBlockEnd
  0
BLOCK
  5
371
330
366
100
AcDbEntity
  8
0
100
AcDbBlockBegin
  2
GDimGGroup14
 70
     0
 71
     0
 10
0.0
 20
0.0
 30
0.0
  3
GDimGGroup14
  1

  0
HATCH
  5
368
330
366
100
AcDbEntity
  8
Default
  6
Continuous
 62
     7
 48
25.4
100
AcDbHatch
 10
0.0
 20
0.0
 30
0.0
210
0.0
220
0.0
230
1.0
  2
SOLID
 70
     1
 71
     0
 91
        1
 92
        1
 93
        3
 72
     1
 10
236.1651637425011
 20
137.6548619233783
 11
235.4984970441695
 21
141.6548621133681
 72
     1
 10
235.4984970441695
 20
141.6548621133681
 11
234.8318303458378
 21
137.6548619233783
 72
     1
 10
234.8318303458378
 20
137.6548619233783
 11
236.1651637425011
 21
137.6548619233783
 97
        0
 75
     0
 76
     1
 98
        0
  0
LWPOLYLINE
  5
369
330
366
100
AcDbEntity
  8
Default
  6
Continuous
 62
     7
 48
25.4
370
    20
100
AcDbPolyline
 90
        4
 70
     1
 43
0.00025
 10
236.1651637425
 20
137.6548619234
 10
235.4984970442
 20
141.6548621134
 10
234.8318303458
 20
137.6548619234
 10
236.1651637425
 20
137.6548619234
  0
HATCH
  5
36A
330
366
100
AcDbEntity
  8
Default
  6
Continuous
 62
     7
 48
25.4
100
AcDbHatch
 10
0.0
 20
0.0
 30
0.0
210
0.0
220
0.0
230
1.0
  2
SOLID
 70
     1
 71
     0
 91
        1
 92
        1
 93
        3
 72
     1
 10
236.1651637425011
 20
156.854862303358
 11
234.8318303458378
 21
156.854862303358
 72
     1
 10
234.8318303458378
 20
156.854862303358
 11
235.4984970441695
 21
152.8548621133681
 72
     1
 10
235.4984970441695
 20
152.8548621133681
 11
236.1651637425011
 21
156.854862303358
 97
        0
 75
     0
 76
     1
 98
        0
  0
LWPOLYLINE
  5
36B
330
366
100
AcDbEntity
  8
Default
  6
Continuous
 62
     7
 48
25.4
370
    20
100
AcDbPolyline
 90
        4
 70
     1
 43
0.00025
 10
236.1651637425
 20
156.8548623034
 10
235.4984970442
 20
152.8548621134
 10
234.8318303458
 20
156.8548623034
 10
236.1651637425
 20
156.8548623034
  0
LINE
  5
36C
330
366
100
AcDbEntity
  8
Default
  6
Continuous
 62
     7
 48
25.4
100
AcDbLine
 10
223.0792127228
 20
141.6548621134
 30
0.0
 11
237.4984971392
 21
141.6548621134
 31
0.0
  0
LINE
  5
36D
330
366
100
AcDbEntity
  8
Default
  6
Continuous
 62
     7
 48
25.4
100
AcDbLine
 10
223.0792127228
 20
152.8548621134
 30
0.0
 11
237.4984971392
 21
152.8548621134
 31
0.0
  0
LINE
  5
36E
330
366
100
AcDbEntity
  8
Default
  6
Continuous
 62
     7
 48
25.4
100
AcDbLine
 10
235.4984970442
 20
105.3446512894
 30
0.0
 11
235.4984970442
 21
160.8548630253
 31
0.0
  0
TEXT
  5
36F
330
366
100
AcDbEntity
  8
Default
  6
Continuous
 62
     7
 48
25.4
100
AcDbText
 10
234.4984970442
 20
106.7446504284
 30
0.0
 40
4.0
  1
16
 50
90.0
  7
SEACAD_arial_ttf
 11
230.4984970442
 21
106.7446504284
 31
0.0
100
AcDbText
 73
     3
  0
TEXT
  5
370
330
366
100
AcDbEntity
  8
Default
  6
Continuous
 62
     7
 48
25.4
100
AcDbText
 10
234.4984970442
 20
115.4055199936
 30
0.0
 40
4.0
  1
H8/h8
 50
90.0
  7
SEACAD_arial_ttf
 11
230.4984970442
 21
115.4055199936
 31
0.0
100
AcDbText
 73
     3
  0
ENDBLK
  5
372
330
366
100
AcDbEntity
  8
0
100
AcDbBlockEnd
  0
BLOCK
  5
37F
330
373
100
AcDbEntity
  8
0
100
AcDbBlockBegin
  2
GDimGGroup15
 70
     0
 71
     0
 10
0.0
 20
0.0
 30
0.0
  3
GDimGGroup15
  1

  0
HATCH
  5
375
330
373
100
AcDbEntity
  8
Default
  6
Continuous
 62
     7
 48
25.4
100
AcDbHatch
 10
0.0
 20
0.0
 30
0.0
210
0.0
220
0.0
230
1.0
  2
SOLID
 70
     1
 71
     0
 91
        1
 92
        1
 93
        3
 72
     1
 10
36.92100942061165
 20
226.4672221831172
 11
37.58767611894329
 21
222.4672219931274
 72
     1
 10
37.58767611894329
 20
222.4672219931274
 11
38.25434281727492
 21
226.4672221831172
 72
     1
 10
38.25434281727492
 20
226.4672221831172
 11
36.92100942061165
 21
226.4672221831172
 97
        0
 75
     0
 76
     1
 98
        0
  0
LWPOLYLINE
  5
376
330
373
100
AcDbEntity
  8
Default
  6
Continuous
 62
     7
 48
25.4
370
    20
100
AcDbPolyline
 90
        4
 70
     1
 43
0.00025
 10
36.9210094206
 20
226.4672221831
 10
37.5876761189
 20
222.4672219931
 10
38.2543428173
 20
226.4672221831
 10
36.9210094206
 20
226.4672221831
  0
HATCH
  5
377
330
373
100
AcDbEntity
  8
Default
  6
Continuous
 62
     7
 48
25.4
100
AcDbHatch
 10
0.0
 20
0.0
 30
0.0
210
0.0
220
0.0
230
1.0
  2
SOLID
 70
     1
 71
     0
 91
        1
 92
        1
 93
        3
 72
     1
 10
36.92100942061165
 20
372.4672209686726
 11
38.25434281727492
 21
372.4672209686726
 72
     1
 10
38.25434281727492
 20
372.4672209686726
 11
37.58767611894329
 21
376.4672211586624
 72
     1
 10
37.58767611894329
 20
376.4672211586624
 11
36.92100942061165
 21
372.4672209686726
 97
        0
 75
     0
 76
     1
 98
        0
  0
LWPOLYLINE
  5
378
330
373
100
AcDbEntity
  8
Default
  6
Continuous
 62
     7
 48
25.4
370
    20
100
AcDbPolyline
 90
        4
 70
     1
 43
0.00025
 10
36.9210094206
 20
372.4672209687
 10
37.5876761189
 20
376.4672211587
 10
38.2543428173
 20
372.4672209687
 10
36.9210094206
 20
372.4672209687
  0
LINE
  5
379
330
373
100
AcDbEntity
  8
Default
  6
Continuous
 62
     7
 48
25.4
100
AcDbLine
 10
135.7959023825
 20
222.4672219931
 30
0.0
 11
35.5876760239
 21
222.4672219931
 31
0.0
  0
LINE
  5
37A
330
373
100
AcDbEntity
  8
Default
  6
Continuous
 62
     7
 48
25.4
100
AcDbLine
 10
135.7959023825
 20
376.4672219931
 30
0.0
 11
35.5876760239
 21
376.4672219931
 31
0.0
  0
LINE
  5
37B
330
373
100
AcDbEntity
  8
Default
  6
Continuous
 62
     7
 48
25.4
100
AcDbLine
 10
37.5876761189
 20
222.4672219931
 30
0.0
 11
37.5876761189
 21
376.4672211587
 31
0.0
  0
TEXT
  5
37C
330
373
100
AcDbEntity
  8
Default
  6
Continuous
 62
     7
 48
25.4
100
AcDbText
 10
36.5876761189
 20
293.6870537651
 30
0.0
 40
4.0
  1
220
 50
90.0
  7
SEACAD_arial_ttf
 11
32.5876761189
 21
293.6870537651
 31
0.0
100
AcDbText
 73
     3
  0
TEXT
  5
37D
330
373
100
AcDbEntity
  8
Default
  6
Continuous
 62
     7
 48
25.4
100
AcDbText
 10
36.5876761189
 20
305.4783581129
 30
0.0
 40
4.0
  1
H6
 50
90.0
  7
SEACAD_arial_ttf
 11
32.5876761189
 21
305.4783581129
 31
0.0
100
AcDbText
 73
     3
  0
TEXT
  5
37E
330
373
100
AcDbEntity
  8
Default
  6
Continuous
 62
     7
 48
25.4
100
AcDbText
 10
36.5876761189
 20
286.3256502563
 30
0.0
 40
4.0
  1
O
 50
90.0
  7
SEACAD_semeca1_ttf
 11
32.5876761189
 21
286.3256502563
 31
0.0
100
AcDbText
 73
     3
  0
ENDBLK
  5
380
330
373
100
AcDbEntity
  8
0
100
AcDbBlockEnd
  0
BLOCK
  5
38D
330
381
100
AcDbEntity
  8
0
100
AcDbBlockBegin
  2
GDimGGroup16
 70
     0
 71
     0
 10
0.0
 20
0.0
 30
0.0
  3
GDimGGroup16
  1

  0
HATCH
  5
383
330
381
100
AcDbEntity
  8
Default
  6
Continuous
 62
     7
 48
25.4
100
AcDbHatch
 10
0.0
 20
0.0
 30
0.0
210
0.0
220
0.0
230
1.0
  2
SOLID
 70
     1
 71
     0
 91
        1
 92
        1
 93
        3
 72
     1
 10
305.9478754277682
 20
333.2944321218836
 11
305.2812087294365
 21
337.2944323118734
 72
     1
 10
305.2812087294365
 20
337.2944323118734
 11
304.6145420311049
 21
333.2944321218836
 72
     1
 10
304.6145420311049
 20
333.2944321218836
 11
305.9478754277682
 21
333.2944321218836
 97
        0
 75
     0
 76
     1
 98
        0
  0
LWPOLYLINE
  5
384
330
381
100
AcDbEntity
  8
Default
  6
Continuous
 62
     7
 48
25.4
370
    20
100
AcDbPolyline
 90
        4
 70
     1
 43
0.00025
 10
305.9478754278
 20
333.2944321219
 10
305.2812087294
 20
337.2944323119
 10
304.6145420311
 20
333.2944321219
 10
305.9478754278
 20
333.2944321219
  0
HATCH
  5
385
330
381
100
AcDbEntity
  8
Default
  6
Continuous
 62
     7
 48
25.4
100
AcDbHatch
 10
0.0
 20
0.0
 30
0.0
210
0.0
220
0.0
230
1.0
  2
SOLID
 70
     1
 71
     0
 91
        1
 92
        1
 93
        3
 72
     1
 10
305.9478754277682
 20
351.067064699707
 11
304.6145420311049
 21
351.067064699707
 72
     1
 10
304.6145420311049
 20
351.067064699707
 11
305.2812087294365
 21
347.0670645097172
 72
     1
 10
305.2812087294365
 20
347.0670645097172
 11
305.9478754277682
 21
351.067064699707
 97
        0
 75
     0
 76
     1
 98
        0
  0
LWPOLYLINE
  5
386
330
381
100
AcDbEntity
  8
Default
  6
Continuous
 62
     7
 48
25.4
370
    20
100
AcDbPolyline
 90
        4
 70
     1
 43
0.00025
 10
305.9478754278
 20
351.0670646997
 10
305.2812087294
 20
347.0670645097
 10
304.6145420311
 20
351.0670646997
 10
305.9478754278
 20
351.0670646997
  0
LINE
  5
387
330
381
100
AcDbEntity
  8
Default
  6
Continuous
 62
     7
 48
25.4
100
AcDbLine
 10
215.508507466
 20
337.2944323119
 30
0.0
 11
307.2812088244
 21
337.2944323119
 31
0.0
  0
LINE
  5
388
330
381
100
AcDbEntity
  8
Default
  6
Continuous
 62
     7
 48
25.4
100
AcDbLine
 10
252.1311812871
 20
347.0670645097
 30
0.0
 11
307.2812088244
 21
347.0670645097
 31
0.0
  0
LINE
  5
389
330
381
100
AcDbEntity
  8
Default
  6
Continuous
 62
     7
 48
25.4
100
AcDbLine
 10
305.2812087294
 20
266.8219087418
 30
0.0
 11
305.2812087294
 21
355.0670640316
 31
0.0
  0
TEXT
  5
38A
330
381
100
AcDbEntity
  8
Default
  6
Continuous
 62
     7
 48
25.4
100
AcDbText
 10
298.2812087294
 20
282.9349544195
 30
0.0
 40
4.0
  1
32.25
 50
90.0
  7
SEACAD_arial_ttf
 11
294.2812087294
 21
282.9349544195
 31
0.0
100
AcDbText
 73
     3
  0
TEXT
  5
38B
330
381
100
AcDbEntity
  8
Default
  6
Continuous
 62
     7
 48
25.4
100
AcDbText
 10
298.2812087294
 20
268.2219109412
 30
0.0
 40
4.0
  1
MAX
 50
90.0
  7
SEACAD_arial_ttf
 11
294.2812087294
 21
268.2219109412
 31
0.0
100
AcDbText
 73
     3
  0
TEXT
  5
38C
330
381
100
AcDbEntity
  8
Default
  6
Continuous
 62
     7
 48
25.4
100
AcDbText
 10
304.2812087294
 20
268.2219109412
 30
0.0
 40
4.0
  1
MIN 14.25
 50
90.0
  7
SEACAD_arial_ttf
 11
300.2812087294
 21
268.2219109412
 31
0.0
100
AcDbText
 73
     3
  0
ENDBLK
  5
38E
330
381
100
AcDbEntity
  8
0
100
AcDbBlockEnd
  0
BLOCK
  5
398
330
38F
100
AcDbEntity
  8
0
100
AcDbBlockBegin
  2
GDimGGroup17
 70
     0
 71
     0
 10
0.0
 20
0.0
 30
0.0
  3
GDimGGroup17
  1

  0
HATCH
  5
391
330
38F
100
AcDbEntity
  8
Default
  6
Continuous
 62
     7
 48
25.4
100
AcDbHatch
 10
0.0
 20
0.0
 30
0.0
210
0.0
220
0.0
230
1.0
  2
SOLID
 70
     1
 71
     0
 91
        1
 92
        1
 93
        3
 72
     1
 10
166.6750129744492
 20
287.7172221831173
 11
167.3416796727808
 21
283.7172219931275
 72
     1
 10
167.3416796727808
 20
283.7172219931275
 11
168.0083463711124
 21
287.7172221831173
 72
     1
 10
168.0083463711124
 20
287.7172221831173
 11
166.6750129744492
 21
287.7172221831173
 97
        0
 75
     0
 76
     1
 98
        0
  0
LWPOLYLINE
  5
392
330
38F
100
AcDbEntity
  8
Default
  6
Continuous
 62
     7
 48
25.4
370
    20
100
AcDbPolyline
 90
        4
 70
     1
 43
0.00025
 10
166.6750129744
 20
287.7172221831
 10
167.3416796728
 20
283.7172219931
 10
168.0083463711
 20
287.7172221831
 10
166.6750129744
 20
287.7172221831
  0
HATCH
  5
393
330
38F
100
AcDbEntity
  8
Default
  6
Continuous
 62
     7
 48
25.4
100
AcDbHatch
 10
0.0
 20
0.0
 30
0.0
210
0.0
220
0.0
230
1.0
  2
SOLID
 70
     1
 71
     0
 91
        1
 92
        1
 93
        3
 72
     1
 10
166.6750129744492
 20
311.2172223097771
 11
168.0083463711124
 21
311.2172223097771
 72
     1
 10
168.0083463711124
 20
311.2172223097771
 11
167.3416796727808
 21
315.2172224997669
 72
     1
 10
167.3416796727808
 20
315.2172224997669
 11
166.6750129744492
 21
311.2172223097771
 97
        0
 75
     0
 76
     1
 98
        0
  0
LWPOLYLINE
  5
394
330
38F
100
AcDbEntity
  8
Default
  6
Continuous
 62
     7
 48
25.4
370
    20
100
AcDbPolyline
 90
        4
 70
     1
 43
0.00025
 10
166.6750129744
 20
311.2172223098
 10
167.3416796728
 20
315.2172224998
 10
168.0083463711
 20
311.2172223098
 10
166.6750129744
 20
311.2172223098
  0
LINE
  5
395
330
38F
100
AcDbEntity
  8
Default
  6
Continuous
 62
     7
 48
25.4
100
AcDbLine
 10
167.3416796728
 20
283.7172219931
 30
0.0
 11
167.3416796728
 21
315.2172224998
 31
0.0
  0
TEXT
  5
396
330
38F
100
AcDbEntity
  8
Default
  6
Continuous
 62
     7
 48
25.4
100
AcDbText
 10
166.3416796728
 20
300.0174892182
 30
0.0
 40
4.0
  1
45
 50
90.0
  7
SEACAD_arial_ttf
 11
162.3416796728
 21
300.0174892182
 31
0.0
100
AcDbText
 73
     3
  0
TEXT
  5
397
330
38F
100
AcDbEntity
  8
Default
  6
Continuous
 62
     7
 48
25.4
100
AcDbText
 10
166.3416796728
 20
292.6560857095
 30
0.0
 40
4.0
  1
O
 50
90.0
  7
SEACAD_semeca1_ttf
 11
162.3416796728
 21
292.6560857095
 31
0.0
100
AcDbText
 73
     3
  0
ENDBLK
  5
399
330
38F
100
AcDbEntity
  8
0
100
AcDbBlockEnd
  0
BLOCK
  5
3A5
330
39A
100
AcDbEntity
  8
0
100
AcDbBlockBegin
  2
GDimGGroup18
 70
     0
 71
     0
 10
0.0
 20
0.0
 30
0.0
  3
GDimGGroup18
  1

  0
HATCH
  5
39C
330
39A
100
AcDbEntity
  8
Default
  6
Continuous
 62
     7
 48
25.4
100
AcDbHatch
 10
0.0
 20
0.0
 30
0.0
210
0.0
220
0.0
230
1.0
  2
SOLID
 70
     1
 71
     0
 91
        1
 92
        1
 93
        3
 72
     1
 10
56.62193175480581
 20
348.3172218031376
 11
57.95526515146907
 21
348.3172218031376
 72
     1
 10
57.95526515146907
 20
348.3172218031376
 11
57.28859845313744
 21
352.3172219931274
 72
     1
 10
57.28859845313744
 20
352.3172219931274
 11
56.62193175480581
 21
348.3172218031376
 97
        0
 75
     0
 76
     1
 98
        0
  0
LWPOLYLINE
  5
39D
330
39A
100
AcDbEntity
  8
Default
  6
Continuous
 62
     7
 48
25.4
370
    20
100
AcDbPolyline
 90
        4
 70
     1
 43
0.00025
 10
56.6219317548
 20
348.3172218031
 10
57.2885984531
 20
352.3172219931
 10
57.9552651515
 20
348.3172218031
 10
56.6219317548
 20
348.3172218031
  0
HATCH
  5
39E
330
39A
100
AcDbEntity
  8
Default
  6
Continuous
 62
     7
 48
25.4
100
AcDbHatch
 10
0.0
 20
0.0
 30
0.0
210
0.0
220
0.0
230
1.0
  2
SOLID
 70
     1
 71
     0
 91
        1
 92
        1
 93
        3
 72
     1
 10
56.62193175480581
 20
250.6750152162402
 11
57.28859845313744
 21
246.6750150262504
 72
     1
 10
57.28859845313744
 20
246.6750150262504
 11
57.95526515146907
 21
250.6750152162402
 72
     1
 10
57.95526515146907
 20
250.6750152162402
 11
56.62193175480581
 21
250.6750152162402
 97
        0
 75
     0
 76
     1
 98
        0
  0
LWPOLYLINE
  5
39F
330
39A
100
AcDbEntity
  8
Default
  6
Continuous
 62
     7
 48
25.4
370
    20
100
AcDbPolyline
 90
        4
 70
     1
 43
0.00025
 10
56.6219317548
 20
250.6750152162
 10
57.2885984531
 20
246.6750150263
 10
57.9552651515
 20
250.6750152162
 10
56.6219317548
 20
250.6750152162
  0
LINE
  5
3A0
330
39A
100
AcDbEntity
  8
Default
  6
Continuous
 62
     7
 48
25.4
100
AcDbLine
 10
152.9459023825
 20
352.3172219931
 30
0.0
 11
55.2885983581
 21
352.3172219931
 31
0.0
  0
LINE
  5
3A1
330
39A
100
AcDbEntity
  8
Default
  6
Continuous
 62
     7
 48
25.4
100
AcDbLine
 10
152.9459023825
 20
246.6750121638
 30
0.0
 11
55.2885983581
 21
246.6750121638
 31
0.0
  0
LINE
  5
3A2
330
39A
100
AcDbEntity
  8
Default
  6
Continuous
 62
     7
 48
25.4
100
AcDbLine
 10
57.2885984531
 20
352.3172219931
 30
0.0
 11
57.2885984531
 21
246.6750150263
 31
0.0
  0
TEXT
  5
3A3
330
39A
100
AcDbEntity
  8
Default
  6
Continuous
 62
     7
 48
25.4
100
AcDbText
 10
56.2885984531
 20
298.4811680902
 30
0.0
 40
4.0
  1
151
 50
90.0
  7
SEACAD_arial_ttf
 11
52.2885984531
 21
298.4811680902
 31
0.0
100
AcDbText
 73
     3
  0
TEXT
  5
3A4
330
39A
100
AcDbEntity
  8
Default
  6
Continuous
 62
     7
 48
25.4
100
AcDbText
 10
56.2885984531
 20
291.1197645814
 30
0.0
 40
4.0
  1
O
 50
90.0
  7
SEACAD_semeca1_ttf
 11
52.2885984531
 21
291.1197645814
 31
0.0
100
AcDbText
 73
     3
  0
ENDBLK
  5
3A6
330
39A
100
AcDbEntity
  8
0
100
AcDbBlockEnd
  0
BLOCK
  5
3B2
330
3A7
100
AcDbEntity
  8
0
100
AcDbBlockBegin
  2
GDimGGroup19
 70
     0
 71
     0
 10
0.0
 20
0.0
 30
0.0
  3
GDimGGroup19
  1

  0
HATCH
  5
3A9
330
3A7
100
AcDbEntity
  8
Default
  6
Continuous
 62
     7
 48
25.4
100
AcDbHatch
 10
0.0
 20
0.0
 30
0.0
210
0.0
220
0.0
230
1.0
  2
SOLID
 70
     1
 71
     0
 91
        1
 92
        1
 93
        3
 72
     1
 10
97.63201271221854
 20
329.4750119738123
 11
98.96534610888182
 21
329.4750119738123
 72
     1
 10
98.96534610888182
 20
329.4750119738123
 11
98.29867941055018
 21
333.4750121638021
 72
     1
 10
98.29867941055018
 20
333.4750121638021
 11
97.63201271221854
 21
329.4750119738123
 97
        0
 75
     0
 76
     1
 98
        0
  0
LWPOLYLINE
  5
3AA
330
3A7
100
AcDbEntity
  8
Default
  6
Continuous
 62
     7
 48
25.4
370
    20
100
AcDbPolyline
 90
        4
 70
     1
 43
0.00025
 10
97.6320127122
 20
329.4750119738
 10
98.2986794106
 20
333.4750121638
 10
98.9653461089
 20
329.4750119738
 10
97.6320127122
 20
329.4750119738
  0
HATCH
  5
3AB
330
3A7
100
AcDbEntity
  8
Default
  6
Continuous
 62
     7
 48
25.4
100
AcDbHatch
 10
0.0
 20
0.0
 30
0.0
210
0.0
220
0.0
230
1.0
  2
SOLID
 70
     1
 71
     0
 91
        1
 92
        1
 93
        3
 72
     1
 10
97.63201271221854
 20
269.5172236479661
 11
98.29867941055018
 21
265.5172234579763
 72
     1
 10
98.29867941055018
 20
265.5172234579763
 11
98.96534610888182
 21
269.5172236479661
 72
     1
 10
98.96534610888182
 20
269.5172236479661
 11
97.63201271221854
 21
269.5172236479661
 97
        0
 75
     0
 76
     1
 98
        0
  0
LWPOLYLINE
  5
3AC
330
3A7
100
AcDbEntity
  8
Default
  6
Continuous
 62
     7
 48
25.4
370
    20
100
AcDbPolyline
 90
        4
 70
     1
 43
0.00025
 10
97.6320127122
 20
269.517223648
 10
98.2986794106
 20
265.517223458
 10
98.9653461089
 20
269.517223648
 10
97.6320127122
 20
269.517223648
  0
LINE
  5
3AD
330
3A7
100
AcDbEntity
  8
Default
  6
Continuous
 62
     7
 48
25.4
100
AcDbLine
 10
159.5959023825
 20
333.4750121638
 30
0.0
 11
96.2986793156
 21
333.4750121638
 31
0.0
  0
LINE
  5
3AE
330
3A7
100
AcDbEntity
  8
Default
  6
Continuous
 62
     7
 48
25.4
100
AcDbLine
 10
159.5959023825
 20
265.5172219931
 30
0.0
 11
96.2986793156
 21
265.5172219931
 31
0.0
  0
LINE
  5
3AF
330
3A7
100
AcDbEntity
  8
Default
  6
Continuous
 62
     7
 48
25.4
100
AcDbLine
 10
98.2986794106
 20
333.4750121638
 30
0.0
 11
98.2986794106
 21
265.517223458
 31
0.0
  0
TEXT
  5
3B0
330
3A7
100
AcDbEntity
  8
Default
  6
Continuous
 62
     7
 48
25.4
100
AcDbText
 10
97.2986794106
 20
300.0463847827
 30
0.0
 40
4.0
  1
97
 50
90.0
  7
SEACAD_arial_ttf
 11
93.2986794106
 21
300.0463847827
 31
0.0
100
AcDbText
 73
     3
  0
TEXT
  5
3B1
330
3A7
100
AcDbEntity
  8
Default
  6
Continuous
 62
     7
 48
25.4
100
AcDbText
 10
97.2986794106
 20
292.6849812739
 30
0.0
 40
4.0
  1
O
 50
90.0
  7
SEACAD_semeca1_ttf
 11
93.2986794106
 21
292.6849812739
 31
0.0
100
AcDbText
 73
     3
  0
ENDBLK
  5
3B3
330
3A7
100
AcDbEntity
  8
0
100
AcDbBlockEnd
  0
BLOCK
  5
3BD
330
3B4
100
AcDbEntity
  8
0
100
AcDbBlockBegin
  2
GDimGGroup20
 70
     0
 71
     0
 10
0.0
 20
0.0
 30
0.0
  3
GDimGGroup20
  1

  0
HATCH
  5
3B6
330
3B4
100
AcDbEntity
  8
Default
  6
Continuous
 62
     7
 48
25.4
100
AcDbHatch
 10
0.0
 20
0.0
 30
0.0
210
0.0
220
0.0
230
1.0
  2
SOLID
 70
     1
 71
     0
 91
        1
 92
        1
 93
        3
 72
     1
 10
201.0069223721458
 20
275.1172221831172
 11
199.6735889754825
 21
275.1172221831172
 72
     1
 10
199.6735889754825
 20
275.1172221831172
 11
200.3402556738141
 21
271.1172219931274
 72
     1
 10
200.3402556738141
 20
271.1172219931274
 11
201.0069223721458
 21
275.1172221831172
 97
        0
 75
     0
 76
     1
 98
        0
  0
LWPOLYLINE
  5
3B7
330
3B4
100
AcDbEntity
  8
Default
  6
Continuous
 62
     7
 48
25.4
370
    20
100
AcDbPolyline
 90
        4
 70
     1
 43
0.00025
 10
201.0069223721
 20
275.1172221831
 10
200.3402556738
 20
271.1172219931
 10
199.6735889755
 20
275.1172221831
 10
201.0069223721
 20
275.1172221831
  0
HATCH
  5
3B8
330
3B4
100
AcDbEntity
  8
Default
  6
Continuous
 62
     7
 48
25.4
100
AcDbHatch
 10
0.0
 20
0.0
 30
0.0
210
0.0
220
0.0
230
1.0
  2
SOLID
 70
     1
 71
     0
 91
        1
 92
        1
 93
        3
 72
     1
 10
201.0069223721458
 20
323.8172204799145
 11
200.3402556738141
 21
327.8172206699043
 72
     1
 10
200.3402556738141
 20
327.8172206699043
 11
199.6735889754825
 21
323.8172204799145
 72
     1
 10
199.6735889754825
 20
323.8172204799145
 11
201.0069223721458
 21
323.8172204799145
 97
        0
 75
     0
 76
     1
 98
        0
  0
LWPOLYLINE
  5
3B9
330
3B4
100
AcDbEntity
  8
Default
  6
Continuous
 62
     7
 48
25.4
370
    20
100
AcDbPolyline
 90
        4
 70
     1
 43
0.00025
 10
201.0069223721
 20
323.8172204799
 10
200.3402556738
 20
327.8172206699
 10
199.6735889755
 20
323.8172204799
 10
201.0069223721
 20
323.8172204799
  0
LINE
  5
3BA
330
3B4
100
AcDbEntity
  8
Default
  6
Continuous
 62
     7
 48
25.4
100
AcDbLine
 10
200.3402556738
 20
271.1172219931
 30
0.0
 11
200.3402556738
 21
327.8172206699
 31
0.0
  0
TEXT
  5
3BB
330
3B4
100
AcDbEntity
  8
Default
  6
Continuous
 62
     7
 48
25.4
100
AcDbText
 10
199.3402556738
 20
300.0174883033
 30
0.0
 40
4.0
  1
81
 50
90.0
  7
SEACAD_arial_ttf
 11
195.3402556738
 21
300.0174883033
 31
0.0
100
AcDbText
 73
     3
  0
TEXT
  5
3BC
330
3B4
100
AcDbEntity
  8
Default
  6
Continuous
 62
     7
 48
25.4
100
AcDbText
 10
199.3402556738
 20
292.6560847945
 30
0.0
 40
4.0
  1
O
 50
90.0
  7
SEACAD_semeca1_ttf
 11
195.3402556738
 21
292.6560847945
 31
0.0
100
AcDbText
 73
     3
  0
ENDBLK
  5
3BE
330
3B4
100
AcDbEntity
  8
0
100
AcDbBlockEnd
  0
BLOCK
  5
3C9
330
3BF
100
AcDbEntity
  8
0
100
AcDbBlockBegin
  2
GDimGGroup21
 70
     0
 71
     0
 10
0.0
 20
0.0
 30
0.0
  3
GDimGGroup21
  1

  0
HATCH
  5
3C1
330
3BF
100
AcDbEntity
  8
Default
  6
Continuous
 62
     7
 48
25.4
100
AcDbHatch
 10
0.0
 20
0.0
 30
0.0
210
0.0
220
0.0
230
1.0
  2
SOLID
 70
     1
 71
     0
 91
        1
 92
        1
 93
        3
 72
     1
 10
139.4459025724561
 20
315.8604167998274
 11
139.4459025724561
 21
317.1937501964907
 72
     1
 10
139.4459025724561
 20
317.1937501964907
 11
135.4459023824663
 21
316.527083498159
 72
     1
 10
135.4459023824663
 20
316.527083498159
 11
139.4459025724561
 21
315.8604167998274
 97
        0
 75
     0
 76
     1
 98
        0
  0
LWPOLYLINE
  5
3C2
330
3BF
100
AcDbEntity
  8
Default
  6
Continuous
 62
     7
 48
25.4
370
    20
100
AcDbPolyline
 90
        4
 70
     1
 43
0.00025
 10
139.4459025725
 20
315.8604167998
 10
135.4459023825
 20
316.5270834982
 10
139.4459025725
 20
317.1937501965
 10
139.4459025725
 20
315.8604167998
  0
HATCH
  5
3C3
330
3BF
100
AcDbEntity
  8
Default
  6
Continuous
 62
     7
 48
25.4
100
AcDbHatch
 10
0.0
 20
0.0
 30
0.0
210
0.0
220
0.0
230
1.0
  2
SOLID
 70
     1
 71
     0
 91
        1
 92
        1
 93
        3
 72
     1
 10
154.895902404073
 20
315.8604167998274
 11
158.8959025940628
 21
316.527083498159
 72
     1
 10
158.8959025940628
 20
316.527083498159
 11
154.895902404073
 21
317.1937501964907
 72
     1
 10
154.895902404073
 20
317.1937501964907
 11
154.895902404073
 21
315.8604167998274
 97
        0
 75
     0
 76
     1
 98
        0
  0
LWPOLYLINE
  5
3C4
330
3BF
100
AcDbEntity
  8
Default
  6
Continuous
 62
     7
 48
25.4
370
    20
100
AcDbPolyline
 90
        4
 70
     1
 43
0.00025
 10
154.8959024041
 20
315.8604167998
 10
158.8959025941
 20
316.5270834982
 10
154.8959024041
 20
317.1937501965
 10
154.8959024041
 20
315.8604167998
  0
LINE
  5
3C5
330
3BF
100
AcDbEntity
  8
Default
  6
Continuous
 62
     7
 48
25.4
100
AcDbLine
 10
105.8846491179
 20
316.5270834982
 30
0.0
 11
158.8959025941
 21
316.5270834982
 31
0.0
  0
TEXT
  5
3C6
330
3BF
100
AcDbEntity
  8
Default
  6
Continuous
 62
     7
 48
25.4
100
AcDbText
 10
121.9976920048
 20
323.5270834982
 30
0.0
 40
4.0
  1
33.5
  7
SEACAD_arial_ttf
 11
121.9976920048
 21
327.5270834982
 31
0.0
100
AcDbText
 73
     3
  0
TEXT
  5
3C7
330
3BF
100
AcDbEntity
  8
Default
  6
Continuous
 62
     7
 48
25.4
100
AcDbText
 10
107.2846485265
 20
323.5270834982
 30
0.0
 40
4.0
  1
MAX
  7
SEACAD_arial_ttf
 11
107.2846485265
 21
327.5270834982
 31
0.0
100
AcDbText
 73
     3
  0
TEXT
  5
3C8
330
3BF
100
AcDbEntity
  8
Default
  6
Continuous
 62
     7
 48
25.4
100
AcDbText
 10
107.2846485265
 20
317.5270834982
 30
0.0
 40
4.0
  1
MIN 14.5
  7
SEACAD_arial_ttf
 11
107.2846485265
 21
321.5270834982
 31
0.0
100
AcDbText
 73
     3
  0
ENDBLK
  5
3CA
330
3BF
100
AcDbEntity
  8
0
100
AcDbBlockEnd
  0
BLOCK
  5
3D3
330
3CB
100
AcDbEntity
  8
0
100
AcDbBlockBegin
  2
GDimGGroup22
 70
     0
 71
     0
 10
0.0
 20
0.0
 30
0.0
  3
GDimGGroup22
  1

  0
HATCH
  5
3CD
330
3CB
100
AcDbEntity
  8
Default
  6
Continuous
 62
     7
 48
25.4
100
AcDbHatch
 10
0.0
 20
0.0
 30
0.0
210
0.0
220
0.0
230
1.0
  2
SOLID
 70
     1
 71
     0
 91
        1
 92
        1
 93
        3
 72
     1
 10
162.8959025724562
 20
274.6166153250078
 11
158.8959023824664
 21
273.9499486266761
 72
     1
 10
158.8959023824664
 20
273.9499486266761
 11
162.8959025724562
 21
273.2832819283445
 72
     1
 10
162.8959025724562
 20
273.2832819283445
 11
162.8959025724562
 21
274.6166153250078
 97
        0
 75
     0
 76
     1
 98
        0
  0
LWPOLYLINE
  5
3CE
330
3CB
100
AcDbEntity
  8
Default
  6
Continuous
 62
     7
 48
25.4
370
    20
100
AcDbPolyline
 90
        4
 70
     1
 43
0.00025
 10
162.8959025725
 20
274.616615325
 10
158.8959023825
 20
273.9499486267
 10
162.8959025725
 20
273.2832819283
 10
162.8959025725
 20
274.616615325
  0
HATCH
  5
3CF
330
3CB
100
AcDbEntity
  8
Default
  6
Continuous
 62
     7
 48
25.4
100
AcDbHatch
 10
0.0
 20
0.0
 30
0.0
210
0.0
220
0.0
230
1.0
  2
SOLID
 70
     1
 71
     0
 91
        1
 92
        1
 93
        3
 72
     1
 10
172.3959022669824
 20
274.6166153250078
 11
172.3959022669824
 21
273.2832819283445
 72
     1
 10
172.3959022669824
 20
273.2832819283445
 11
176.3959024569722
 21
273.9499486266761
 72
     1
 10
176.3959024569722
 20
273.9499486266761
 11
172.3959022669824
 21
274.6166153250078
 97
        0
 75
     0
 76
     1
 98
        0
  0
LWPOLYLINE
  5
3D0
330
3CB
100
AcDbEntity
  8
Default
  6
Continuous
 62
     7
 48
25.4
370
    20
100
AcDbPolyline
 90
        4
 70
     1
 43
0.00025
 10
172.395902267
 20
274.616615325
 10
176.395902457
 20
273.9499486267
 10
172.395902267
 20
273.2832819283
 10
172.395902267
 20
274.616615325
  0
LINE
  5
3D1
330
3CB
100
AcDbEntity
  8
Default
  6
Continuous
 62
     7
 48
25.4
100
AcDbLine
 10
124.1171807519
 20
273.9499486267
 30
0.0
 11
176.395902457
 21
273.9499486267
 31
0.0
  0
TEXT
  5
3D2
330
3CB
100
AcDbEntity
  8
Default
  6
Continuous
 62
     7
 48
25.4
100
AcDbText
 10
125.5171801801
 20
274.9499486267
 30
0.0
 40
4.0
  1
25
  7
SEACAD_arial_ttf
 11
125.5171801801
 21
278.9499486267
 31
0.0
100
AcDbText
 73
     3
  0
ENDBLK
  5
3D4
330
3CB
100
AcDbEntity
  8
0
100
AcDbBlockEnd
  0
BLOCK
  5
3DF
330
3D5
100
AcDbEntity
  8
0
100
AcDbBlockBegin
  2
GDimGGroup23
 70
     0
 71
     0
 10
0.0
 20
0.0
 30
0.0
  3
GDimGGroup23
  1

  0
HATCH
  5
3D7
330
3D5
100
AcDbEntity
  8
Default
  6
Continuous
 62
     7
 48
25.4
100
AcDbHatch
 10
0.0
 20
0.0
 30
0.0
210
0.0
220
0.0
230
1.0
  2
SOLID
 70
     1
 71
     0
 91
        1
 92
        1
 93
        3
 72
     1
 10
215.4411810971134
 20
188.2257979870279
 11
219.4411812871032
 21
188.8924646853595
 72
     1
 10
219.4411812871032
 20
188.8924646853595
 11
215.4411810971134
 21
189.5591313836912
 72
     1
 10
215.4411810971134
 20
189.5591313836912
 11
215.4411810971134
 21
188.2257979870279
 97
        0
 75
     0
 76
     1
 98
        0
  0
LWPOLYLINE
  5
3D8
330
3D5
100
AcDbEntity
  8
Default
  6
Continuous
 62
     7
 48
25.4
370
    20
100
AcDbPolyline
 90
        4
 70
     1
 43
0.00025
 10
215.4411810971
 20
188.225797987
 10
219.4411812871
 20
188.8924646854
 10
215.4411810971
 20
189.5591313837
 10
215.4411810971
 20
188.225797987
  0
HATCH
  5
3D9
330
3D5
100
AcDbEntity
  8
Default
  6
Continuous
 62
     7
 48
25.4
100
AcDbHatch
 10
0.0
 20
0.0
 30
0.0
210
0.0
220
0.0
230
1.0
  2
SOLID
 70
     1
 71
     0
 91
        1
 92
        1
 93
        3
 72
     1
 10
139.4459062776797
 20
188.2257979870279
 11
139.4459062776797
 21
189.5591313836912
 72
     1
 10
139.4459062776797
 20
189.5591313836912
 11
135.4459060876899
 21
188.8924646853595
 72
     1
 10
135.4459060876899
 20
188.8924646853595
 11
139.4459062776797
 21
188.2257979870279
 97
        0
 75
     0
 76
     1
 98
        0
  0
LWPOLYLINE
  5
3DA
330
3D5
100
AcDbEntity
  8
Default
  6
Continuous
 62
     7
 48
25.4
370
    20
100
AcDbPolyline
 90
        4
 70
     1
 43
0.00025
 10
139.4459062777
 20
188.225797987
 10
135.4459060877
 20
188.8924646854
 10
139.4459062777
 20
189.5591313837
 10
139.4459062777
 20
188.225797987
  0
LINE
  5
3DB
330
3D5
100
AcDbEntity
  8
Default
  6
Continuous
 62
     7
 48
25.4
100
AcDbLine
 10
219.4411812871
 20
211.9672219931
 30
0.0
 11
219.4411812871
 21
186.8924645904
 31
0.0
  0
LINE
  5
3DC
330
3D5
100
AcDbEntity
  8
Default
  6
Continuous
 62
     7
 48
25.4
100
AcDbLine
 10
135.4459023825
 20
235.6551917784
 30
0.0
 11
135.4459023825
 21
186.8924645904
 31
0.0
  0
LINE
  5
3DD
330
3D5
100
AcDbEntity
  8
Default
  6
Continuous
 62
     7
 48
25.4
100
AcDbLine
 10
219.4411812871
 20
188.8924646854
 30
0.0
 11
135.4459060877
 21
188.8924646854
 31
0.0
  0
TEXT
  5
3DE
330
3D5
100
AcDbEntity
  8
Default
  6
Continuous
 62
     7
 48
25.4
100
AcDbText
 10
172.7478915135
 20
189.8924646854
 30
0.0
 40
4.0
  1
120
  7
SEACAD_arial_ttf
 11
172.7478915135
 21
193.8924646854
 31
0.0
100
AcDbText
 73
     3
  0
ENDBLK
  5
3E0
330
3D5
100
AcDbEntity
  8
0
100
AcDbBlockEnd
  0
BLOCK
  5
3ED
330
3E1
100
AcDbEntity
  8
0
100
AcDbBlockBegin
  2
GDimGGroup24
 70
     0
 71
     0
 10
0.0
 20
0.0
 30
0.0
  3
GDimGGroup24
  1

  0
HATCH
  5
3E3
330
3E1
100
AcDbEntity
  8
Default
  6
Continuous
 62
     7
 48
25.4
100
AcDbHatch
 10
0.0
 20
0.0
 30
0.0
210
0.0
220
0.0
230
1.0
  2
SOLID
 70
     1
 71
     0
 91
        1
 92
        1
 93
        3
 72
     1
 10
282.0285969412242
 20
303.4672221831172
 11
280.6952635445609
 21
303.4672221831172
 72
     1
 10
280.6952635445609
 20
303.4672221831172
 11
281.3619302428926
 21
299.4672219931274
 72
     1
 10
281.3619302428926
 20
299.4672219931274
 11
282.0285969412242
 21
303.4672221831172
 97
        0
 75
     0
 76
     1
 98
        0
  0
LWPOLYLINE
  5
3E4
330
3E1
100
AcDbEntity
  8
Default
  6
Continuous
 62
     7
 48
25.4
370
    20
100
AcDbPolyline
 90
        4
 70
     1
 43
0.00025
 10
282.0285969412
 20
303.4672221831
 10
281.3619302429
 20
299.4672219931
 10
280.6952635446
 20
303.4672221831
 10
282.0285969412
 20
303.4672221831
  0
HATCH
  5
3E5
330
3E1
100
AcDbEntity
  8
Default
  6
Continuous
 62
     7
 48
25.4
100
AcDbHatch
 10
0.0
 20
0.0
 30
0.0
210
0.0
220
0.0
230
1.0
  2
SOLID
 70
     1
 71
     0
 91
        1
 92
        1
 93
        3
 72
     1
 10
282.0285969412242
 20
333.2944304413288
 11
281.3619302428926
 21
337.2944306313186
 72
     1
 10
281.3619302428926
 20
337.2944306313186
 11
280.6952635445609
 21
333.2944304413288
 72
     1
 10
280.6952635445609
 20
333.2944304413288
 11
282.0285969412242
 21
333.2944304413288
 97
        0
 75
     0
 76
     1
 98
        0
  0
LWPOLYLINE
  5
3E6
330
3E1
100
AcDbEntity
  8
Default
  6
Continuous
 62
     7
 48
25.4
370
    20
100
AcDbPolyline
 90
        4
 70
     1
 43
0.00025
 10
282.0285969412
 20
333.2944304413
 10
281.3619302429
 20
337.2944306313
 10
280.6952635446
 20
333.2944304413
 10
282.0285969412
 20
333.2944304413
  0
LINE
  5
3E7
330
3E1
100
AcDbEntity
  8
Default
  6
Continuous
 62
     7
 48
25.4
100
AcDbLine
 10
266.2605384208
 20
299.4672219931
 30
0.0
 11
283.3619303379
 21
299.4672219931
 31
0.0
  0
LINE
  5
3E8
330
3E1
100
AcDbEntity
  8
Default
  6
Continuous
 62
     7
 48
25.4
100
AcDbLine
 10
215.508507466
 20
337.2944323119
 30
0.0
 11
283.3619303379
 21
337.2944323119
 31
0.0
  0
LINE
  5
3E9
330
3E1
100
AcDbEntity
  8
Default
  6
Continuous
 62
     7
 48
25.4
100
AcDbLine
 10
281.3619302429
 20
272.6348109274
 30
0.0
 11
281.3619302429
 21
337.2944306313
 31
0.0
  0
TEXT
  5
3EA
330
3E1
100
AcDbEntity
  8
Default
  6
Continuous
 62
     7
 48
25.4
100
AcDbText
 10
274.3619302429
 20
288.7478536427
 30
0.0
 40
4.0
  1
54
 50
90.0
  7
SEACAD_arial_ttf
 11
270.3619302429
 21
288.7478536427
 31
0.0
100
AcDbText
 73
     3
  0
TEXT
  5
3EB
330
3E1
100
AcDbEntity
  8
Default
  6
Continuous
 62
     7
 48
25.4
100
AcDbText
 10
274.3619302429
 20
274.0348101644
 30
0.0
 40
4.0
  1
MAX
 50
90.0
  7
SEACAD_arial_ttf
 11
270.3619302429
 21
274.0348101644
 31
0.0
100
AcDbText
 73
     3
  0
TEXT
  5
3EC
330
3E1
100
AcDbEntity
  8
Default
  6
Continuous
 62
     7
 48
25.4
100
AcDbText
 10
280.3619302429
 20
274.0348101644
 30
0.0
 40
4.0
  1
MIN 49.6
 50
90.0
  7
SEACAD_arial_ttf
 11
276.3619302429
 21
274.0348101644
 31
0.0
100
AcDbText
 73
     3
  0
ENDBLK
  5
3EE
330
3E1
100
AcDbEntity
  8
0
100
AcDbBlockEnd
  0
BLOCK
  5
3F9
330
3EF
100
AcDbEntity
  8
0
100
AcDbBlockBegin
  2
GDimGGroup25
 70
     0
 71
     0
 10
0.0
 20
0.0
 30
0.0
  3
GDimGGroup25
  1

  0
HATCH
  5
3F1
330
3EF
100
AcDbEntity
  8
Default
  6
Continuous
 62
     7
 48
25.4
100
AcDbHatch
 10
0.0
 20
0.0
 30
0.0
210
0.0
220
0.0
230
1.0
  2
SOLID
 70
     1
 71
     0
 91
        1
 92
        1
 93
        3
 72
     1
 10
203.5411810971135
 20
201.4559444344482
 11
207.5411812871033
 21
202.1226111327798
 72
     1
 10
207.5411812871033
 20
202.1226111327798
 11
203.5411810971135
 21
202.7892778311114
 72
     1
 10
203.5411810971135
 20
202.7892778311114
 11
203.5411810971135
 21
201.4559444344482
 97
        0
 75
     0
 76
     1
 98
        0
  0
LWPOLYLINE
  5
3F2
330
3EF
100
AcDbEntity
  8
Default
  6
Continuous
 62
     7
 48
25.4
370
    20
100
AcDbPolyline
 90
        4
 70
     1
 43
0.00025
 10
203.5411810971
 20
201.4559444344
 10
207.5411812871
 20
202.1226111328
 10
203.5411810971
 20
202.7892778311
 10
203.5411810971
 20
201.4559444344
  0
HATCH
  5
3F3
330
3EF
100
AcDbEntity
  8
Default
  6
Continuous
 62
     7
 48
25.4
100
AcDbHatch
 10
0.0
 20
0.0
 30
0.0
210
0.0
220
0.0
230
1.0
  2
SOLID
 70
     1
 71
     0
 91
        1
 92
        1
 93
        3
 72
     1
 10
223.441181477093
 20
201.4559444344482
 11
223.441181477093
 21
202.7892778311114
 72
     1
 10
223.441181477093
 20
202.7892778311114
 11
219.4411812871032
 21
202.1226111327798
 72
     1
 10
219.4411812871032
 20
202.1226111327798
 11
223.441181477093
 21
201.4559444344482
 97
        0
 75
     0
 76
     1
 98
        0
  0
LWPOLYLINE
  5
3F4
330
3EF
100
AcDbEntity
  8
Default
  6
Continuous
 62
     7
 48
25.4
370
    20
100
AcDbPolyline
 90
        4
 70
     1
 43
0.00025
 10
223.4411814771
 20
201.4559444344
 10
219.4411812871
 20
202.1226111328
 10
223.4411814771
 20
202.7892778311
 10
223.4411814771
 20
201.4559444344
  0
LINE
  5
3F5
330
3EF
100
AcDbEntity
  8
Default
  6
Continuous
 62
     7
 48
25.4
100
AcDbLine
 10
207.5411812871
 20
230.6749803474
 30
0.0
 11
207.5411812871
 21
200.1226110378
 31
0.0
  0
LINE
  5
3F6
330
3EF
100
AcDbEntity
  8
Default
  6
Continuous
 62
     7
 48
25.4
100
AcDbLine
 10
219.4411812871
 20
255.7172219931
 30
0.0
 11
219.4411812871
 21
200.1226110378
 31
0.0
  0
LINE
  5
3F7
330
3EF
100
AcDbEntity
  8
Default
  6
Continuous
 62
     7
 48
25.4
100
AcDbLine
 10
199.5411809071
 20
202.1226111328
 30
0.0
 11
233.0744383394
 21
202.1226111328
 31
0.0
  0
TEXT
  5
3F8
330
3EF
100
AcDbEntity
  8
Default
  6
Continuous
 62
     7
 48
25.4
100
AcDbText
 10
225.413569346
 20
203.1226111328
 30
0.0
 40
4.0
  1
17
  7
SEACAD_arial_ttf
 11
225.413569346
 21
207.1226111328
 31
0.0
100
AcDbText
 73
     3
  0
ENDBLK
  5
3FA
330
3EF
100
AcDbEntity
  8
0
100
AcDbBlockEnd
  0
BLOCK
  5
405
330
3FB
100
AcDbEntity
  8
0
100
AcDbBlockBegin
  2
GDimGGroup26
 70
     0
 71
     0
 10
0.0
 20
0.0
 30
0.0
  3
GDimGGroup26
  1

  0
HATCH
  5
3FD
330
3FB
100
AcDbEntity
  8
Default
  6
Continuous
 62
     7
 48
25.4
100
AcDbHatch
 10
0.0
 20
0.0
 30
0.0
210
0.0
220
0.0
230
1.0
  2
SOLID
 70
     1
 71
     0
 91
        1
 92
        1
 93
        3
 72
     1
 10
223.441181477093
 20
399.6252098006944
 11
219.4411812871032
 21
398.9585431023627
 72
     1
 10
219.4411812871032
 20
398.9585431023627
 11
223.441181477093
 21
398.2918764040311
 72
     1
 10
223.441181477093
 20
398.2918764040311
 11
223.441181477093
 21
399.6252098006944
 97
        0
 75
     0
 76
     1
 98
        0
  0
LWPOLYLINE
  5
3FE
330
3FB
100
AcDbEntity
  8
Default
  6
Continuous
 62
     7
 48
25.4
370
    20
100
AcDbPolyline
 90
        4
 70
     1
 43
0.00025
 10
223.4411814771
 20
399.6252098007
 10
219.4411812871
 20
398.9585431024
 10
223.4411814771
 20
398.291876404
 10
223.4411814771
 20
399.6252098007
  0
HATCH
  5
3FF
330
3FB
100
AcDbEntity
  8
Default
  6
Continuous
 62
     7
 48
25.4
100
AcDbHatch
 10
0.0
 20
0.0
 30
0.0
210
0.0
220
0.0
230
1.0
  2
SOLID
 70
     1
 71
     0
 91
        1
 92
        1
 93
        3
 72
     1
 10
245.6811803913944
 20
399.6252098006944
 11
245.6811803913944
 21
398.2918764040311
 72
     1
 10
245.6811803913944
 20
398.2918764040311
 11
249.6811805813842
 21
398.9585431023627
 72
     1
 10
249.6811805813842
 20
398.9585431023627
 11
245.6811803913944
 21
399.6252098006944
 97
        0
 75
     0
 76
     1
 98
        0
  0
LWPOLYLINE
  5
400
330
3FB
100
AcDbEntity
  8
Default
  6
Continuous
 62
     7
 48
25.4
370
    20
100
AcDbPolyline
 90
        4
 70
     1
 43
0.00025
 10
245.6811803914
 20
399.6252098007
 10
249.6811805814
 20
398.9585431024
 10
245.6811803914
 20
398.291876404
 10
245.6811803914
 20
399.6252098007
  0
LINE
  5
401
330
3FB
100
AcDbEntity
  8
Default
  6
Continuous
 62
     7
 48
25.4
100
AcDbLine
 10
219.4411812871
 20
386.9672219931
 30
0.0
 11
219.4411812871
 21
400.9585431974
 31
0.0
  0
LINE
  5
402
330
3FB
100
AcDbEntity
  8
Default
  6
Continuous
 62
     7
 48
25.4
100
AcDbLine
 10
249.6811812871
 20
389.0672219931
 30
0.0
 11
249.6811812871
 21
400.9585431974
 31
0.0
  0
LINE
  5
403
330
3FB
100
AcDbEntity
  8
Default
  6
Continuous
 62
     7
 48
25.4
100
AcDbLine
 10
219.4411812871
 20
398.9585431024
 30
0.0
 11
249.6811805814
 21
398.9585431024
 31
0.0
  0
TEXT
  5
404
330
3FB
100
AcDbEntity
  8
Default
  6
Continuous
 62
     7
 48
25.4
100
AcDbText
 10
229.0829200647
 20
399.9585431024
 30
0.0
 40
4.0
  1
43.2
  7
SEACAD_arial_ttf
 11
229.0829200647
 21
403.9585431024
 31
0.0
100
AcDbText
 73
     3
  0
ENDBLK
  5
406
330
3FB
100
AcDbEntity
  8
0
100
AcDbBlockEnd
  0
BLOCK
  5
411
330
407
100
AcDbEntity
  8
0
100
AcDbBlockBegin
  2
GDimGGroup27
 70
     0
 71
     0
 10
0.0
 20
0.0
 30
0.0
  3
GDimGGroup27
  1

  0
HATCH
  5
409
330
407
100
AcDbEntity
  8
Default
  6
Continuous
 62
     7
 48
25.4
100
AcDbHatch
 10
0.0
 20
0.0
 30
0.0
210
0.0
220
0.0
230
1.0
  2
SOLID
 70
     1
 71
     0
 91
        1
 92
        1
 93
        3
 72
     1
 10
543.8661224784772
 20
348.0281779180457
 11
546.5066828706025
 21
344.9505348552261
 72
     1
 10
546.5066828706024
 20
344.9505348552261
 11
545.0070099795064
 21
348.7182167985826
 72
     1
 10
545.0070099795065
 20
348.7182167985826
 11
543.8661224784772
 21
348.0281779180457
 97
        0
 75
     0
 76
     1
 98
        0
  0
LWPOLYLINE
  5
40A
330
407
100
AcDbEntity
  8
Default
  6
Continuous
 62
     7
 48
25.4
370
    20
100
AcDbPolyline
 90
        4
 70
     1
 43
0.00025
 10
543.8661224785
 20
348.028177918
 10
546.5066828706
 20
344.9505348552
 10
545.0070099795
 20
348.7182167986
 10
543.8661224785
 20
348.028177918
  0
HATCH
  5
40B
330
407
100
AcDbEntity
  8
Default
  6
Continuous
 62
     7
 48
25.4
100
AcDbHatch
 10
0.0
 20
0.0
 30
0.0
210
0.0
220
0.0
230
1.0
  2
SOLID
 70
     1
 71
     0
 91
        1
 92
        1
 93
        3
 72
     1
 10
465.4564947689706
 20
394.6467266205543
 11
461.44375006358
 21
394.0616403568778
 72
     1
 10
461.44375006358
 20
394.0616403568778
 11
465.4293473568986
 21
393.3136696207695
 72
     1
 10
465.4293473568986
 20
393.3136696207695
 11
465.4564947689706
 21
394.6467266205543
 97
        0
 75
     0
 76
     1
 98
        0
  0
LWPOLYLINE
  5
40C
330
407
100
AcDbEntity
  8
Default
  6
Continuous
 62
     7
 48
25.4
370
    20
100
AcDbPolyline
 90
        4
 70
     1
 43
0.00025
 10
465.456494769
 20
394.6467266206
 10
461.4437500636
 20
394.0616403569
 10
465.4293473569
 20
393.3136696208
 10
465.456494769
 20
394.6467266206
  0
LINE
  5
40D
330
407
100
AcDbEntity
  8
Default
  6
Continuous
 62
     7
 48
25.4
100
AcDbLine
 10
513.3966168813
 20
325.8344293434
 30
0.0
 11
548.2387307359
 21
345.9505331565
 31
0.0
  0
LINE
  5
40E
330
407
100
AcDbEntity
  8
Default
  6
Continuous
 62
     7
 48
25.4
100
AcDbLine
 10
461.4437529259
 20
295.8394293536
 30
0.0
 11
461.4437529259
 21
396.0616369594
 31
0.0
  0
ARC
  5
40F
330
407
100
AcDbEntity
  8
Default
  6
Continuous
 62
     7
 48
25.4
100
AcDbCircle
 10
461.4437529259
 20
295.8394293536
 30
0.0
 40
98.22221100330383
100
AcDbArc
 50
30.0
 51
90.0000016697
  0
TEXT
  5
410
330
407
100
AcDbEntity
  8
Default
  6
Continuous
 62
     7
 48
25.4
100
AcDbText
 10
507.3648371418
 20
383.8988194847
 30
0.0
 40
4.0
  1
60°
 50
330.0
  7
SEACAD_arial_ttf
 11
509.3648371418
 21
387.3629210998
 31
0.0
100
AcDbText
 73
     3
  0
ENDBLK
  5
412
330
407
100
AcDbEntity
  8
0
100
AcDbBlockEnd
  0
BLOCK
  5
41D
330
413
100
AcDbEntity
  8
0
100
AcDbBlockBegin
  2
GDimGGroup28
 70
     0
 71
     0
 10
0.0
 20
0.0
 30
0.0
  3
GDimGGroup28
  1

  0
HATCH
  5
415
330
413
100
AcDbEntity
  8
Default
  6
Continuous
 62
     7
 48
25.4
100
AcDbHatch
 10
0.0
 20
0.0
 30
0.0
210
0.0
220
0.0
230
1.0
  2
SOLID
 70
     1
 71
     0
 91
        1
 92
        1
 93
        3
 72
     1
 10
554.565090409227
 20
324.9174104510099
 11
556.3191232491714
 21
321.2612082133076
 72
     1
 10
556.3191232491714
 20
321.2612082133076
 11
555.8456983155057
 21
325.2886534132782
 72
     1
 10
555.8456983155058
 20
325.2886534132782
 11
554.565090409227
 21
324.9174104510099
 97
        0
 75
     0
 76
     1
 98
        0
  0
LWPOLYLINE
  5
416
330
413
100
AcDbEntity
  8
Default
  6
Continuous
 62
     7
 48
25.4
370
    20
100
AcDbPolyline
 90
        4
 70
     1
 43
0.00025
 10
554.5650904092
 20
324.917410451
 10
556.3191232492
 20
321.2612082133
 10
555.8456983155
 20
325.2886534133
 10
554.5650904092
 20
324.917410451
  0
HATCH
  5
417
330
413
100
AcDbEntity
  8
Default
  6
Continuous
 62
     7
 48
25.4
100
AcDbHatch
 10
0.0
 20
0.0
 30
0.0
210
0.0
220
0.0
230
1.0
  2
SOLID
 70
     1
 71
     0
 91
        1
 92
        1
 93
        3
 72
     1
 10
549.0197543637033
 20
341.7679396980727
 11
546.5066825128167
 21
344.9505354749292
 72
     1
 10
546.5066825128167
 20
344.9505354749292
 11
547.8517194171074
 21
341.1249215722099
 72
     1
 10
547.8517194171075
 20
341.1249215722099
 11
549.0197543637033
 21
341.7679396980727
 97
        0
 75
     0
 76
     1
 98
        0
  0
LWPOLYLINE
  5
418
330
413
100
AcDbEntity
  8
Default
  6
Continuous
 62
     7
 48
25.4
370
    20
100
AcDbPolyline
 90
        4
 70
     1
 43
0.00025
 10
549.0197543637
 20
341.7679396981
 10
546.5066825128
 20
344.9505354749
 10
547.8517194171
 20
341.1249215722
 10
549.0197543637
 20
341.7679396981
  0
LINE
  5
419
330
413
100
AcDbEntity
  8
Default
  6
Continuous
 62
     7
 48
25.4
100
AcDbLine
 10
506.5428281697
 20
307.9236901446
 30
0.0
 11
558.2509716201
 21
321.7788454242
 31
0.0
  0
LINE
  5
41A
330
413
100
AcDbEntity
  8
Default
  6
Continuous
 62
     7
 48
25.4
100
AcDbLine
 10
513.3966168813
 20
325.8344293434
 30
0.0
 11
548.2387307359
 21
345.9505331565
 31
0.0
  0
ARC
  5
41B
330
413
100
AcDbEntity
  8
Default
  6
Continuous
 62
     7
 48
25.4
100
AcDbCircle
 10
461.4437529259
 20
295.8394293536
 30
0.0
 40
98.22221100331113
100
AcDbArc
 50
15.0
 51
30.0000004174
  0
TEXT
  5
41C
330
413
100
AcDbEntity
  8
Default
  6
Continuous
 62
     7
 48
25.4
100
AcDbText
 10
551.4825586523
 20
337.7466558092
 30
0.0
 40
4.0
  1
15°
 50
292.5
  7
SEACAD_arial_ttf
 11
555.1780767823
 21
339.2773895386
 31
0.0
100
AcDbText
 73
     3
  0
ENDBLK
  5
41E
330
413
100
AcDbEntity
  8
0
100
AcDbBlockEnd
  0
BLOCK
  5
429
330
41F
100
AcDbEntity
  8
0
100
AcDbBlockBegin
  2
GDimGGroup29
 70
     0
 71
     0
 10
0.0
 20
0.0
 30
0.0
  3
GDimGGroup29
  1

  0
HATCH
  5
421
330
41F
100
AcDbEntity
  8
Default
  6
Continuous
 62
     7
 48
25.4
100
AcDbHatch
 10
0.0
 20
0.0
 30
0.0
210
0.0
220
0.0
230
1.0
  2
SOLID
 70
     1
 71
     0
 91
        1
 92
        1
 93
        3
 72
     1
 10
558.917993080772
 20
299.8250266258198
 11
559.6659639291696
 21
295.8394293535743
 72
     1
 10
559.6659639291697
 20
295.8394293535743
 11
560.2510500797921
 21
299.8521740754489
 72
     1
 10
560.251050079792
 20
299.8521740754489
 11
558.917993080772
 21
299.8250266258198
 97
        0
 75
     0
 76
     1
 98
        0
  0
LWPOLYLINE
  5
422
330
41F
100
AcDbEntity
  8
Default
  6
Continuous
 62
     7
 48
25.4
370
    20
100
AcDbPolyline
 90
        4
 70
     1
 43
0.00025
 10
558.9179930808
 20
299.8250266258
 10
559.6659639292
 20
295.8394293536
 10
560.2510500798
 20
299.8521740754
 10
558.9179930808
 20
299.8250266258
  0
HATCH
  5
423
330
41F
100
AcDbEntity
  8
Default
  6
Continuous
 62
     7
 48
25.4
100
AcDbHatch
 10
0.0
 20
0.0
 30
0.0
210
0.0
220
0.0
230
1.0
  2
SOLID
 70
     1
 71
     0
 91
        1
 92
        1
 93
        3
 72
     1
 10
557.9228476681459
 20
317.5366265922721
 11
556.3191230639678
 21
321.2612089044967
 72
     1
 10
556.3191230639678
 20
321.2612089044967
 11
556.6281872099013
 21
317.2178284672535
 72
     1
 10
556.6281872099013
 20
317.2178284672535
 11
557.922847668146
 21
317.5366265922721
 97
        0
 75
     0
 76
     1
 98
        0
  0
LWPOLYLINE
  5
424
330
41F
100
AcDbEntity
  8
Default
  6
Continuous
 62
     7
 48
25.4
370
    20
100
AcDbPolyline
 90
        4
 70
     1
 43
0.00025
 10
557.9228476681
 20
317.5366265923
 10
556.319123064
 20
321.2612089045
 10
556.6281872099
 20
317.2178284673
 10
557.9228476681
 20
317.5366265923
  0
LINE
  5
425
330
41F
100
AcDbEntity
  8
Default
  6
Continuous
 62
     7
 48
25.4
100
AcDbLine
 10
559.4437503629
 20
295.8394293536
 30
0.0
 11
561.6659605317
 21
295.8394293536
 31
0.0
  0
LINE
  5
426
330
41F
100
AcDbEntity
  8
Default
  6
Continuous
 62
     7
 48
25.4
100
AcDbLine
 10
506.5428281697
 20
307.9236901446
 30
0.0
 11
558.2509716201
 21
321.7788454242
 31
0.0
  0
ARC
  5
427
330
41F
100
AcDbEntity
  8
Default
  6
Continuous
 62
     7
 48
25.4
100
AcDbCircle
 10
461.4437529259
 20
295.8394293536
 30
0.0
 40
98.22221100329671
100
AcDbArc
 50
0.0
 51
15.0000004174
  0
TEXT
  5
428
330
41F
100
AcDbEntity
  8
Default
  6
Continuous
 62
     7
 48
25.4
100
AcDbText
 10
559.2609490793
 20
313.0149439749
 30
0.0
 40
4.0
  1
15°
 50
277.5
  7
SEACAD_arial_ttf
 11
563.2267285248
 21
313.5370487438
 31
0.0
100
AcDbText
 73
     3
  0
ENDBLK
  5
42A
330
41F
100
AcDbEntity
  8
0
100
AcDbBlockEnd
  0
BLOCK
  5
435
330
42B
100
AcDbEntity
  8
0
100
AcDbBlockBegin
  2
GDimGGroup30
 70
     0
 71
     0
 10
0.0
 20
0.0
 30
0.0
  3
GDimGGroup30
  1

  0
HATCH
  5
42D
330
42B
100
AcDbEntity
  8
Default
  6
Continuous
 62
     7
 48
25.4
100
AcDbHatch
 10
0.0
 20
0.0
 30
0.0
210
0.0
220
0.0
230
1.0
  2
SOLID
 70
     1
 71
     0
 91
        1
 92
        1
 93
        3
 72
     1
 10
547.8517197507225
 20
250.5539377631398
 11
546.5066828706024
 21
246.7283238519225
 72
     1
 10
546.5066828706024
 20
246.7283238519225
 11
549.0197547013812
 21
249.9109196446567
 72
     1
 10
549.0197547013812
 20
249.9109196446567
 11
547.8517197507225
 21
250.5539377631398
 97
        0
 75
     0
 76
     1
 98
        0
  0
LWPOLYLINE
  5
42E
330
42B
100
AcDbEntity
  8
Default
  6
Continuous
 62
     7
 48
25.4
370
    20
100
AcDbPolyline
 90
        4
 70
     1
 43
0.00025
 10
547.8517197507
 20
250.5539377631
 10
546.5066828706
 20
246.7283238519
 10
549.0197547014
 20
249.9109196447
 10
547.8517197507
 20
250.5539377631
  0
HATCH
  5
42F
330
42B
100
AcDbEntity
  8
Default
  6
Continuous
 62
     7
 48
25.4
100
AcDbHatch
 10
0.0
 20
0.0
 30
0.0
210
0.0
220
0.0
230
1.0
  2
SOLID
 70
     1
 71
     0
 91
        1
 92
        1
 93
        3
 72
     1
 10
560.2510501343786
 20
291.8266860708018
 11
559.6659639291697
 21
295.8394307847174
 72
     1
 10
559.6659639291697
 20
295.8394307847174
 11
558.9179931349894
 21
291.8538335022971
 72
     1
 10
558.9179931349894
 20
291.8538335022971
 11
560.2510501343786
 21
291.8266860708018
 97
        0
 75
     0
 76
     1
 98
        0
  0
LWPOLYLINE
  5
430
330
42B
100
AcDbEntity
  8
Default
  6
Continuous
 62
     7
 48
25.4
370
    20
100
AcDbPolyline
 90
        4
 70
     1
 43
0.00025
 10
560.2510501344
 20
291.8266860708
 10
559.6659639292
 20
295.8394307847
 10
558.917993135
 20
291.8538335023
 10
560.2510501344
 20
291.8266860708
  0
LINE
  5
431
330
42B
100
AcDbEntity
  8
Default
  6
Continuous
 62
     7
 48
25.4
100
AcDbLine
 10
522.0071953722
 20
260.8731095542
 30
0.0
 11
548.2387307359
 21
245.7283255507
 31
0.0
  0
LINE
  5
432
330
42B
100
AcDbEntity
  8
Default
  6
Continuous
 62
     7
 48
25.4
100
AcDbLine
 10
559.4437503629
 20
295.8394293536
 30
0.0
 11
561.6659605317
 21
295.8394293536
 31
0.0
  0
ARC
  5
433
330
42B
100
AcDbEntity
  8
Default
  6
Continuous
 62
     7
 48
25.4
100
AcDbCircle
 10
461.4437529259
 20
295.8394293536
 30
0.0
 40
98.22221100330158
100
AcDbArc
 50
330.0
 51
0.0000008348
  0
TEXT
  5
434
330
42B
100
AcDbEntity
  8
Default
  6
Continuous
 62
     7
 48
25.4
100
AcDbText
 10
554.2504032307
 20
266.5607855835
 30
0.0
 40
4.0
  1
30°
 50
75.0
  7
SEACAD_arial_ttf
 11
550.3866999256
 21
267.5960617639
 31
0.0
100
AcDbText
 73
     3
  0
ENDBLK
  5
436
330
42B
100
AcDbEntity
  8
0
100
AcDbBlockEnd
  0
BLOCK
  5
43F
330
437
100
AcDbEntity
  8
0
100
AcDbBlockBegin
  2
GDimGGroup31
 70
     0
 71
     0
 10
0.0
 20
0.0
 30
0.0
  3
GDimGGroup31
  1

  0
LINE
  5
439
330
437
100
AcDbEntity
  8
Default
  6
Continuous
 62
     7
 48
25.4
100
AcDbLine
 10
461.4437529259
 20
295.8394293536
 30
0.0
 11
415.2036953661
 21
302.3057284178
 31
0.0
  0
HATCH
  5
43A
330
437
100
AcDbEntity
  8
Default
  6
Continuous
 62
     7
 48
25.4
100
AcDbHatch
 10
0.0
 20
0.0
 30
0.0
210
0.0
220
0.0
230
1.0
  2
SOLID
 70
     1
 71
     0
 91
        1
 92
        1
 93
        3
 72
     1
 10
419.0728173028219
 20
301.0915091980909
 11
419.2574763903838
 21
302.4119935668127
 72
     1
 10
419.2574763903837
 20
302.4119935668127
 11
415.2036937404376
 21
302.3057286451372
 72
     1
 10
415.2036937404376
 20
302.3057286451372
 11
419.0728173028219
 21
301.0915091980908
 97
        0
 75
     0
 76
     1
 98
        0
  0
LWPOLYLINE
  5
43B
330
437
100
AcDbEntity
  8
Default
  6
Continuous
 62
     7
 48
25.4
370
    20
100
AcDbPolyline
 90
        4
 70
     1
 43
0.00025
 10
419.0728173028
 20
301.0915091981
 10
415.2036937404
 20
302.3057286451
 10
419.2574763904
 20
302.4119935668
 10
419.0728173028
 20
301.0915091981
  0
ARC
  5
43C
330
437
100
AcDbEntity
  8
Default
  6
Continuous
 62
     7
 48
25.4
100
AcDbCircle
 10
461.4437529259
 20
295.8394293536
 30
0.0
 40
46.69000000002771
100
AcDbArc
 50
170.1557824698
 51
174.4935784883
  0
TEXT
  5
43D
330
437
100
AcDbEntity
  8
Default
  6
Continuous
 62
     7
 48
25.4
100
AcDbText
 10
429.8675879939
 20
301.2648318584
 30
0.0
 40
4.0
  1
R
 50
352.0392722337
  7
SEACAD_arial_ttf
 11
430.4215652302
 21
305.2262847765
 31
0.0
100
AcDbText
 73
     3
  0
TEXT
  5
43E
330
437
100
AcDbEntity
  8
Default
  6
Continuous
 62
     7
 48
25.4
100
AcDbText
 10
436.2059126627
 20
300.3784682803
 30
0.0
 40
4.0
  1
66.7
 50
352.0392722337
  7
SEACAD_arial_ttf
 11
436.759889899
 21
304.3399211983
 31
0.0
100
AcDbText
 73
     3
  0
ENDBLK
  5
440
330
437
100
AcDbEntity
  8
0
100
AcDbBlockEnd
  0
ENDSEC
  0
SECTION
  2
ENTITIES
  0
INSERT
  5
2C
330
1F
100
AcDbEntity
  8
Default
100
AcDbBlockReference
  2
SEANNOT_GROUP
 10
0.0
 20
0.0
 30
0.0
  0
INSERT
  5
36
330
1F
100
AcDbEntity
  8
Default
100
AcDbBlockReference
  2
SEANNOT_GROUP1
 10
0.0
 20
0.0
 30
0.0
  0
INSERT
  5
40
330
1F
100
AcDbEntity
  8
Default
100
AcDbBlockReference
  2
SEANNOT_GROUP2
 10
0.0
 20
0.0
 30
0.0
  0
INSERT
  5
4B
330
1F
100
AcDbEntity
  8
Default
100
AcDbBlockReference
  2
SEANNOT_GROUP3
 10
0.0
 20
0.0
 30
0.0
  0
INSERT
  5
54
330
1F
100
AcDbEntity
  8
Default
100
AcDbBlockReference
  2
SEANNOT_GROUP4
 10
0.0
 20
0.0
 30
0.0
  0
INSERT
  5
5D
330
1F
100
AcDbEntity
  8
Default
100
AcDbBlockReference
  2
SEANNOT_GROUP5
 10
0.0
 20
0.0
 30
0.0
  0
INSERT
  5
66
330
1F
100
AcDbEntity
  8
Default
100
AcDbBlockReference
  2
SE
 10
0.0
 20
0.0
 30
0.0
  0
INSERT
  5
15D
330
1F
100
AcDbEntity
  8
Default
100
AcDbBlockReference
  2
SE1
 10
0.0
 20
0.0
 30
0.0
  0
INSERT
  5
221
330
1F
100
AcDbEntity
  8
Default
100
AcDbBlockReference
  2
SE2
 10
0.0
 20
0.0
 30
0.0
  0
INSERT
  5
2BB
330
1F
100
AcDbEntity
  8
Default
100
AcDbBlockReference
  2
GDimGGroup
 10
0.0
 20
0.0
 30
0.0
  0
INSERT
  5
2C7
330
1F
100
AcDbEntity
  8
Default
100
AcDbBlockReference
  2
GDimGGroup1
 10
0.0
 20
0.0
 30
0.0
  0
INSERT
  5
2D3
330
1F
100
AcDbEntity
  8
Default
100
AcDbBlockReference
  2
GDimGGroup2
 10
0.0
 20
0.0
 30
0.0
  0
INSERT
  5
2DF
330
1F
100
AcDbEntity
  8
Default
100
AcDbBlockReference
  2
GDimGGroup3
 10
0.0
 20
0.0
 30
0.0
  0
INSERT
  5
2EA
330
1F
100
AcDbEntity
  8
Default
100
AcDbBlockReference
  2
GDimGGroup4
 10
0.0
 20
0.0
 30
0.0
  0
INSERT
  5
2F6
330
1F
100
AcDbEntity
  8
Default
100
AcDbBlockReference
  2
GDimGGroup5
 10
0.0
 20
0.0
 30
0.0
  0
INSERT
  5
302
330
1F
100
AcDbEntity
  8
Default
100
AcDbBlockReference
  2
GDimGGroup6
 10
0.0
 20
0.0
 30
0.0
  0
INSERT
  5
30F
330
1F
100
AcDbEntity
  8
Default
100
AcDbBlockReference
  2
GDimGGroup7
 10
0.0
 20
0.0
 30
0.0
  0
INSERT
  5
31C
330
1F
100
AcDbEntity
  8
Default
100
AcDbBlockReference
  2
GDimGGroup8
 10
0.0
 20
0.0
 30
0.0
  0
INSERT
  5
329
330
1F
100
AcDbEntity
  8
Default
100
AcDbBlockReference
  2
GDimGGroup9
 10
0.0
 20
0.0
 30
0.0
  0
INSERT
  5
335
330
1F
100
AcDbEntity
  8
Default
100
AcDbBlockReference
  2
GDimGGroup10
 10
0.0
 20
0.0
 30
0.0
  0
INSERT
  5
341
330
1F
100
AcDbEntity
  8
Default
100
AcDbBlockReference
  2
GDimGGroup11
 10
0.0
 20
0.0
 30
0.0
  0
INSERT
  5
34D
330
1F
100
AcDbEntity
  8
Default
100
AcDbBlockReference
  2
GDimGGroup12
 10
0.0
 20
0.0
 30
0.0
  0
INSERT
  5
359
330
1F
100
AcDbEntity
  8
Default
100
AcDbBlockReference
  2
GDimGGroup13
 10
0.0
 20
0.0
 30
0.0
  0
INSERT
  5
367
330
1F
100
AcDbEntity
  8
Default
100
AcDbBlockReference
  2
GDimGGroup14
 10
0.0
 20
0.0
 30
0.0
  0
INSERT
  5
374
330
1F
100
AcDbEntity
  8
Default
100
AcDbBlockReference
  2
GDimGGroup15
 10
0.0
 20
0.0
 30
0.0
  0
INSERT
  5
382
330
1F
100
AcDbEntity
  8
Default
100
AcDbBlockReference
  2
GDimGGroup16
 10
0.0
 20
0.0
 30
0.0
  0
INSERT
  5
390
330
1F
100
AcDbEntity
  8
Default
100
AcDbBlockReference
  2
GDimGGroup17
 10
0.0
 20
0.0
 30
0.0
  0
INSERT
  5
39B
330
1F
100
AcDbEntity
  8
Default
100
AcDbBlockReference
  2
GDimGGroup18
 10
0.0
 20
0.0
 30
0.0
  0
INSERT
  5
3A8
330
1F
100
AcDbEntity
  8
Default
100
AcDbBlockReference
  2
GDimGGroup19
 10
0.0
 20
0.0
 30
0.0
  0
INSERT
  5
3B5
330
1F
100
AcDbEntity
  8
Default
100
AcDbBlockReference
  2
GDimGGroup20
 10
0.0
 20
0.0
 30
0.0
  0
INSERT
  5
3C0
330
1F
100
AcDbEntity
  8
Default
100
AcDbBlockReference
  2
GDimGGroup21
 10
0.0
 20
0.0
 30
0.0
  0
INSERT
  5
3CC
330
1F
100
AcDbEntity
  8
Default
100
AcDbBlockReference
  2
GDimGGroup22
 10
0.0
 20
0.0
 30
0.0
  0
INSERT
  5
3D6
330
1F
100
AcDbEntity
  8
Default
100
AcDbBlockReference
  2
GDimGGroup23
 10
0.0
 20
0.0
 30
0.0
  0
INSERT
  5
3E2
330
1F
100
AcDbEntity
  8
Default
100
AcDbBlockReference
  2
GDimGGroup24
 10
0.0
 20
0.0
 30
0.0
  0
INSERT
  5
3F0
330
1F
100
AcDbEntity
  8
Default
100
AcDbBlockReference
  2
GDimGGroup25
 10
0.0
 20
0.0
 30
0.0
  0
INSERT
  5
3FC
330
1F
100
AcDbEntity
  8
Default
100
AcDbBlockReference
  2
GDimGGroup26
 10
0.0
 20
0.0
 30
0.0
  0
INSERT
  5
408
330
1F
100
AcDbEntity
  8
Default
100
AcDbBlockReference
  2
GDimGGroup27
 10
0.0
 20
0.0
 30
0.0
  0
INSERT
  5
414
330
1F
100
AcDbEntity
  8
Default
100
AcDbBlockReference
  2
GDimGGroup28
 10
0.0
 20
0.0
 30
0.0
  0
INSERT
  5
420
330
1F
100
AcDbEntity
  8
Default
100
AcDbBlockReference
  2
GDimGGroup29
 10
0.0
 20
0.0
 30
0.0
  0
INSERT
  5
42C
330
1F
100
AcDbEntity
  8
Default
100
AcDbBlockReference
  2
GDimGGroup30
 10
0.0
 20
0.0
 30
0.0
  0
INSERT
  5
438
330
1F
100
AcDbEntity
  8
Default
100
AcDbBlockReference
  2
GDimGGroup31
 10
0.0
 20
0.0
 30
0.0
  0
LINE
  5
442
330
1F
100
AcDbEntity
  8
BORDER
  6
Continuous
 62
     7
 48
25.4
100
AcDbLine
 10
6.2292620399
 20
410.0
 30
0.0
 11
586.2292620399
 21
410.0
 31
0.0
  0
LINE
  5
443
330
1F
100
AcDbEntity
  8
BORDER
  6
Continuous
 62
     7
 48
25.4
100
AcDbLine
 10
6.2292620399
 20
410.0
 30
0.0
 11
6.2292620399
 21
10.0
 31
0.0
  0
LINE
  5
444
330
1F
100
AcDbEntity
  8
BORDER
  6
Continuous
 62
     7
 48
25.4
100
AcDbLine
 10
6.2292620399
 20
10.0
 30
0.0
 11
586.2292620399
 21
10.0
 31
0.0
  0
LINE
  5
445
330
1F
100
AcDbEntity
  8
BORDER
  6
Continuous
 62
     7
 48
25.4
100
AcDbLine
 10
586.2292620399
 20
10.0
 30
0.0
 11
586.2292620399
 21
410.0
 31
0.0
  0
LINE
  5
446
330
1F
100
AcDbEntity
  8
Default
  6
Continuous
 62
     7
 48
25.4
100
AcDbLine
 10
3.7292620399
 20
412.5
 30
0.0
 11
588.7292620399
 21
412.5
 31
0.0
  0
LINE
  5
447
330
1F
100
AcDbEntity
  8
Default
  6
Continuous
 62
     7
 48
25.4
100
AcDbLine
 10
588.7292620399
 20
412.5
 30
0.0
 11
588.7292620399
 21
7.5
 31
0.0
  0
LINE
  5
448
330
1F
100
AcDbEntity
  8
Default
  6
Continuous
 62
     7
 48
25.4
100
AcDbLine
 10
588.7292620399
 20
7.5
 30
0.0
 11
3.7292620399
 21
7.5
 31
0.0
  0
LINE
  5
449
330
1F
100
AcDbEntity
  8
Default
  6
Continuous
 62
     7
 48
25.4
100
AcDbLine
 10
3.7292620399
 20
7.5
 30
0.0
 11
3.7292620399
 21
412.5
 31
0.0
  0
TEXT
  5
44A
330
1F
100
AcDbEntity
  8
Default
  6
Continuous
 62
     7
 48
25.4
100
AcDbText
 10
473.5242219525
 20
28.1561611714
 30
0.0
 40
5.0
  1
TITLE :
  7
SEACAD_arial_ttf
 11
473.5242219525
 21
33.1561611714
 31
0.0
100
AcDbText
 73
     3
  0
TEXT
  5
44B
330
1F
100
AcDbEntity
  8
Default
  6
Continuous
 62
     7
 48
25.4
100
AcDbText
 10
473.4498030642
 20
40.2710242694
 30
0.0
 40
5.0
  1
KITAGAWA EUROPE LIMITED
  7
SEACAD_arial_ttf
 11
473.4498030642
 21
45.2710242694
 31
0.0
100
AcDbText
 73
     3
  0
TEXT
  5
44C
330
1F
100
AcDbEntity
  8
Default
  6
Continuous
 62
     7
 48
25.4
100
AcDbText
 10
474.4044215056
 20
15.7611952147
 30
0.0
 40
5.0
  1
www.kitagawaeurope.com
  7
SEACAD_arial_ttf
 11
474.4044215056
 21
20.7611952147
 31
0.0
100
AcDbText
 73
     3
  0
TEXT
  5
44D
330
1F
100
AcDbEntity
  8
Default
  6
Continuous
 62
     7
 48
25.4
100
AcDbText
 10
497.8463064412
 20
27.8559210467
 30
0.0
 40
5.0
  1
BB210A6 POWER CHUCK
  7
SEACAD_arial_ttf
 11
497.8463064412
 21
32.8559210467
 31
0.0
100
AcDbText
 73
     3
  0
LINE
  5
44E
330
1F
100
AcDbEntity
  8
Default
  6
Continuous
 62
     7
 48
25.4
100
AcDbLine
 10
471.5030858285
 20
50.0
 30
0.0
 11
586.2292620399
 21
50.0
 31
0.0
  0
LINE
  5
44F
330
1F
100
AcDbEntity
  8
Default
  6
Continuous
 62
     7
 48
25.4
100
AcDbLine
 10
471.5030858285
 20
36.7
 30
0.0
 11
586.2292620399
 21
36.7
 31
0.0
  0
LINE
  5
450
330
1F
100
AcDbEntity
  8
Default
  6
Continuous
 62
     7
 48
25.4
100
AcDbLine
 10
586.2292620399
 20
23.4
 30
0.0
 11
471.5030858285
 21
23.4
 31
0.0
  0
LINE
  5
451
330
1F
100
AcDbEntity
  8
Default
  6
Continuous
 62
     7
 48
25.4
100
AcDbLine
 10
471.5030858285
 20
50.0
 30
0.0
 11
471.5030858285
 21
10.0
 31
0.0
  0
ENDSEC
  0
SECTION
  2
OBJECTS
  0
DICTIONARY
  5
C
330
0
100
AcDbDictionary
281
     1
  3
ACAD_GROUP
350
D
  3
ACAD_LAYOUT
350
1A
  3
ACAD_MLINESTYLE
350
17
  3
ACAD_PLOTSETTINGS
350
19
  3
ACAD_PLOTSTYLENAME
350
E
  0
DICTIONARY
  5
D
102
{ACAD_REACTORS
330
C
102
}
330
C
100
AcDbDictionary
281
     1
  0
DICTIONARY
  5
1A
102
{ACAD_REACTORS
330
C
102
}
330
C
100
AcDbDictionary
281
     1
  3
Layout1
350
1E
  3
Model
350
22
  0
DICTIONARY
  5
17
102
{ACAD_REACTORS
330
C
102
}
330
C
100
AcDbDictionary
281
     1
  3
Standard
350
18
  0
DICTIONARY
  5
19
102
{ACAD_REACTORS
330
C
102
}
330
C
100
AcDbDictionary
281
     1
  0
ACDBDICTIONARYWDFLT
  5
E
102
{ACAD_REACTORS
330
C
102
}
330
C
100
AcDbDictionary
281
     1
  3
Normal
350
F
100
AcDbDictionaryWithDefault
340
F
  0
LAYOUT
  5
1E
102
{ACAD_REACTORS
330
1A
102
}
330
1A
100
AcDbPlotSettings
  1

  2

  4

  6

 40
0.0
 41
0.0
 42
0.0
 43
0.0
 44
0.0
 45
0.0
 46
0.0
 47
0.0
 48
0.0
 49
0.0
140
0.0
141
0.0
142
1.0
143
1.0
 70
   688
 72
     0
 73
     0
 74
     5
  7

 75
    16
147
1.0
148
0.0
149
0.0
100
AcDbLayout
  1
Layout1
 70
     1
 71
     1
 10
0.0
 20
0.0
 11
594.0
 21
420.0
 12
0.0
 22
0.0
 32
0.0
 14
0.0
 24
0.0
 34
0.0
 15
594.0
 25
420.0
 35
0.0
146
0.0
 13
0.0
 23
0.0
 33
0.0
 16
1.0
 26
0.0
 36
0.0
 17
0.0
 27
1.0
 37
0.0
 76
     0
330
1B
  0
LAYOUT
  5
22
102
{ACAD_REACTORS
330
1A
102
}
330
1A
100
AcDbPlotSettings
  1

  2

  4

  6

 40
0.0
 41
0.0
 42
0.0
 43
0.0
 44
0.0
 45
0.0
 46
0.0
 47
0.0
 48
0.0
 49
0.0
140
0.0
141
0.0
142
1.0
143
1.0
 70
  1712
 72
     0
 73
     0
 74
     0
  7

 75
     0
147
1.0
148
0.0
149
0.0
100
AcDbLayout
  1
Model
 70
     1
 71
     0
 10
0.0
 20
0.0
 11
594.0
 21
420.0
 12
0.0
 22
0.0
 32
0.0
 14
0.0
 24
0.0
 34
0.0
 15
594.0
 25
420.0
 35
0.0
146
0.0
 13
0.0
 23
0.0
 33
0.0
 16
1.0
 26
0.0
 36
0.0
 17
0.0
 27
1.0
 37
0.0
 76
     0
330
1F
  0
MLINESTYLE
  5
18
102
{ACAD_REACTORS
330
17
102
}
330
17
100
AcDbMlineStyle
  2
Standard
 70
     0
  3

 62
   256
 51
90.0
 52
90.0
 71
     2
 49
0.5
 62
   256
  6
BYLAYER
 49
-0.5
 62
   256
  6
BYLAYER
  0
ACDBPLACEHOLDER
  5
F
102
{ACAD_REACTORS
330
E
102
}
330
E
  0
ENDSEC
  0
EOF
