  0
SECTION
  2
HEADER
  9
$ACADVER
  1
AC1015
  9
$ACADMAINTVER
 70
     6
  9
$DWGCODEPAGE
  3
ANSI_1252
  9
$INSBASE
 10
0.0
 20
0.0
 30
0.0
  9
$EXTMIN
 10
0.0
 20
0.0
 30
0.0
  9
$EXTMAX
 10
594.0
 20
420.0
 30
0.0
  9
$LIMMIN
 10
0.0
 20
0.0
  9
$LIMMAX
 10
594.0
 20
420.0
  9
$ORTHOMODE
 70
     0
  9
$REGENMODE
 70
     1
  9
$FILLMODE
 70
     1
  9
$QTEXTMODE
 70
     0
  9
$MIRRTEXT
 70
     1
  9
$LTSCALE
 40
1.0
  9
$ATTMODE
 70
     1
  9
$TEXTSIZE
 40
0.2
  9
$TRACEWID
 40
0.05
  9
$TEXTSTYLE
  7
Standard
  9
$CLAYER
  8
0
  9
$CELTYPE
  6
ByLayer
  9
$CECOLOR
 62
   256
  9
$CELTSCALE
 40
25.4
  9
$DISPSILH
 70
     0
  9
$DIMSCALE
 40
1.0
  9
$DIMASZ
 40
0.18
  9
$DIMEXO
 40
0.0625
  9
$DIMDLI
 40
0.38
  9
$DIMRND
 40
0.0
  9
$DIMDLE
 40
0.0
  9
$DIMEXE
 40
0.18
  9
$DIMTP
 40
0.0
  9
$DIMTM
 40
0.0
  9
$DIMTXT
 40
0.18
  9
$DIMCEN
 40
0.09
  9
$DIMTSZ
 40
0.0
  9
$DIMTOL
 70
     0
  9
$DIMLIM
 70
     0
  9
$DIMTIH
 70
     1
  9
$DIMTOH
 70
     1
  9
$DIMSE1
 70
     0
  9
$DIMSE2
 70
     0
  9
$DIMTAD
 70
     0
  9
$DIMZIN
 70
     0
  9
$DIMBLK
  1

  9
$DIMASO
 70
     1
  9
$DIMSHO
 70
     1
  9
$DIMPOST
  1

  9
$DIMAPOST
  1

  9
$DIMALT
 70
     0
  9
$DIMALTD
 70
     2
  9
$DIMALTF
 40
25.4
  9
$DIMLFAC
 40
1.0
  9
$DIMTOFL
 70
     0
  9
$DIMTVP
 40
0.0
  9
$DIMTIX
 70
     0
  9
$DIMSOXD
 70
     0
  9
$DIMSAH
 70
     0
  9
$DIMBLK1
  1

  9
$DIMBLK2
  1

  9
$DIMSTYLE
  2
Standard
  9
$DIMCLRD
 70
     0
  9
$DIMCLRE
 70
     0
  9
$DIMCLRT
 70
     0
  9
$DIMTFAC
 40
1.0
  9
$DIMGAP
 40
0.09
  9
$DIMJUST
 70
     0
  9
$DIMSD1
 70
     0
  9
$DIMSD2
 70
     0
  9
$DIMTOLJ
 70
     1
  9
$DIMTZIN
 70
     0
  9
$DIMALTZ
 70
     0
  9
$DIMALTTZ
 70
     0
  9
$DIMUPT
 70
     0
  9
$DIMDEC
 70
     4
  9
$DIMTDEC
 70
     4
  9
$DIMALTU
 70
     2
  9
$DIMALTTD
 70
     2
  9
$DIMTXSTY
  7
Standard
  9
$DIMAUNIT
 70
     0
  9
$DIMADEC
 70
     0
  9
$DIMALTRND
 40
0.0
  9
$DIMAZIN
 70
     0
  9
$DIMDSEP
 70
    46
  9
$DIMATFIT
 70
     3
  9
$DIMFRAC
 70
     0
  9
$DIMLDRBLK
  1

  9
$DIMLUNIT
 70
     2
  9
$DIMLWD
 70
    -2
  9
$DIMLWE
 70
    -2
  9
$DIMTMOVE
 70
     0
  9
$LUNITS
 70
     2
  9
$LUPREC
 70
     4
  9
$SKETCHINC
 40
0.1
  9
$FILLETRAD
 40
0.5
  9
$AUNITS
 70
     0
  9
$AUPREC
 70
     0
  9
$MENU
  1
.
  9
$ELEVATION
 40
0.0
  9
$PELEVATION
 40
0.0
  9
$THICKNESS
 40
0.0
  9
$LIMCHECK
 70
     0
  9
$CHAMFERA
 40
0.5
  9
$CHAMFERB
 40
0.5
  9
$CHAMFERC
 40
1.0
  9
$CHAMFERD
 40
0.0
  9
$SKPOLY
 70
     0
  9
$TDCREATE
 40
2454910.387859537
  9
$TDUCREATE
 40
2454910.387859537
  9
$TDUPDATE
 40
2454910.387859548
  9
$TDUUPDATE
 40
2454910.387859548
  9
$TDINDWG
 40
0.0000000116
  9
$TDUSRTIMER
 40
0.0000000116
  9
$USRTIMER
 70
     1
  9
$ANGBASE
 50
0.0
  9
$ANGDIR
 70
     0
  9
$PDMODE
 70
     0
  9
$PDSIZE
 40
0.0
  9
$PLINEWID
 40
0.0
  9
$SPLFRAME
 70
     0
  9
$SPLINETYPE
 70
     6
  9
$SPLINESEGS
 70
     8
  9
$HANDSEED
  5
427
  9
$SURFTAB1
 70
     6
  9
$SURFTAB2
 70
     6
  9
$SURFTYPE
 70
     6
  9
$SURFU
 70
     6
  9
$SURFV
 70
     6
  9
$UCSBASE
  2

  9
$UCSNAME
  2

  9
$UCSORG
 10
0.0
 20
0.0
 30
0.0
  9
$UCSXDIR
 10
1.0
 20
0.0
 30
0.0
  9
$UCSYDIR
 10
0.0
 20
1.0
 30
0.0
  9
$UCSORTHOREF
  2

  9
$UCSORTHOVIEW
 70
     0
  9
$UCSORGTOP
 10
0.0
 20
0.0
 30
0.0
  9
$UCSORGBOTTOM
 10
0.0
 20
0.0
 30
0.0
  9
$UCSORGLEFT
 10
0.0
 20
0.0
 30
0.0
  9
$UCSORGRIGHT
 10
0.0
 20
0.0
 30
0.0
  9
$UCSORGFRONT
 10
0.0
 20
0.0
 30
0.0
  9
$UCSORGBACK
 10
0.0
 20
0.0
 30
0.0
  9
$PUCSBASE
  2

  9
$PUCSNAME
  2

  9
$PUCSORG
 10
0.0
 20
0.0
 30
0.0
  9
$PUCSXDIR
 10
1.0
 20
0.0
 30
0.0
  9
$PUCSYDIR
 10
0.0
 20
1.0
 30
0.0
  9
$PUCSORTHOREF
  2

  9
$PUCSORTHOVIEW
 70
     0
  9
$PUCSORGTOP
 10
0.0
 20
0.0
 30
0.0
  9
$PUCSORGBOTTOM
 10
0.0
 20
0.0
 30
0.0
  9
$PUCSORGLEFT
 10
0.0
 20
0.0
 30
0.0
  9
$PUCSORGRIGHT
 10
0.0
 20
0.0
 30
0.0
  9
$PUCSORGFRONT
 10
0.0
 20
0.0
 30
0.0
  9
$PUCSORGBACK
 10
0.0
 20
0.0
 30
0.0
  9
$USERI1
 70
     0
  9
$USERI2
 70
     0
  9
$USERI3
 70
     0
  9
$USERI4
 70
     0
  9
$USERI5
 70
     0
  9
$USERR1
 40
0.0
  9
$USERR2
 40
0.0
  9
$USERR3
 40
0.0
  9
$USERR4
 40
0.0
  9
$USERR5
 40
0.0
  9
$WORLDVIEW
 70
     1
  9
$SHADEDGE
 70
     3
  9
$SHADEDIF
 70
    70
  9
$TILEMODE
 70
     1
  9
$MAXACTVP
 70
    64
  9
$PINSBASE
 10
0.0
 20
0.0
 30
0.0
  9
$PLIMCHECK
 70
     0
  9
$PEXTMIN
 10
0.0
 20
0.0
 30
0.0
  9
$PEXTMAX
 10
594.0
 20
420.0
 30
0.0
  9
$PLIMMIN
 10
0.0
 20
0.0
  9
$PLIMMAX
 10
594.0
 20
420.0
  9
$UNITMODE
 70
     0
  9
$VISRETAIN
 70
     1
  9
$PLINEGEN
 70
     0
  9
$PSLTSCALE
 70
     1
  9
$TREEDEPTH
 70
  3020
  9
$CMLSTYLE
  2
Standard
  9
$CMLJUST
 70
     0
  9
$CMLSCALE
 40
1.0
  9
$PROXYGRAPHICS
 70
     1
  9
$MEASUREMENT
 70
     1
  9
$CELWEIGHT
370
    -1
  9
$ENDCAPS
280
     0
  9
$JOINSTYLE
280
     0
  9
$LWDISPLAY
290
     0
  9
$INSUNITS
 70
     1
  9
$HYPERLINKBASE
  1

  9
$STYLESHEET
  1

  9
$XEDIT
290
     1
  9
$CEPSNTYPE
380
     0
  9
$PSTYLEMODE
290
     1
  9
$FINGERPRINTGUID
  2
{D35EF865-CD6F-4A97-8DDD-82B68F391B8B}
  9
$VERSIONGUID
  2
{FAEB1C32-E019-11D5-929B-00C0DF256EC4}
  9
$EXTNAMES
290
     1
  9
$PSVPSCALE
 40
0.0
  9
$OLESTARTUP
290
     0
  0
ENDSEC
  0
SECTION
  2
CLASSES
  0
CLASS
  1
ACDBDICTIONARYWDFLT
  2
AcDbDictionaryWithDefault
  3
ObjectDBX Classes
 90
        0
280
     0
281
     0
  0
CLASS
  1
ACDBPLACEHOLDER
  2
AcDbPlaceHolder
  3
ObjectDBX Classes
 90
        0
280
     0
281
     0
  0
CLASS
  1
LAYOUT
  2
AcDbLayout
  3
ObjectDBX Classes
 90
        0
280
     0
281
     0
  0
ENDSEC
  0
SECTION
  2
TABLES
  0
TABLE
  2
VPORT
  5
8
330
0
100
AcDbSymbolTable
 70
     1
  0
VPORT
  5
29
330
8
100
AcDbSymbolTableRecord
100
AcDbViewportTableRecord
  2
*Active
 70
     0
 10
0.0
 20
0.0
 11
1.0
 21
1.0
 12
10.4299065421
 22
4.5
 13
0.0
 23
0.0
 14
0.5
 24
0.5
 15
0.5
 25
0.5
 16
0.0
 26
0.0
 36
1.0
 17
0.0
 27
0.0
 37
0.0
 40
9.0
 41
1.9729729729
 42
50.0
 43
0.0
 44
0.0
 50
0.0
 51
0.0
 71
     0
 72
   100
 73
     1
 74
     3
 75
     0
 76
     0
 77
     0
 78
     0
281
     0
 65
     1
110
0.0
120
0.0
130
0.0
111
1.0
121
0.0
131
0.0
112
0.0
122
1.0
132
0.0
 79
     0
146
0.0
  0
ENDTAB
  0
TABLE
  2
LTYPE
  5
5
330
0
100
AcDbSymbolTable
 70
     3
  0
LTYPE
  5
14
330
5
100
AcDbSymbolTableRecord
100
AcDbLinetypeTableRecord
  2
ByBlock
 70
     0
  3

 72
    65
 73
     0
 40
0.0
  0
LTYPE
  5
15
330
5
100
AcDbSymbolTableRecord
100
AcDbLinetypeTableRecord
  2
ByLayer
 70
     0
  3

 72
    65
 73
     0
 40
0.0
  0
LTYPE
  5
16
330
5
100
AcDbSymbolTableRecord
100
AcDbLinetypeTableRecord
  2
Continuous
 70
     0
  3
Solid line
 72
    65
 73
     0
 40
0.0
  0
LTYPE
  5
8E
330
5
100
AcDbSymbolTableRecord
100
AcDbLinetypeTableRecord
  2
CENTER2
 70
     0
  3
___ _ ___ _ ___ _ ___ _ ___ _ ___ _ ___ _ ___ _
 72
    65
 73
     4
 40
1.125
 49
0.75
 74
     4
 75
     0
340
0
 46
0.0
 50
0.0
 44
0.0
 45
0.0
 49
-0.125
 74
     4
 75
     0
340
0
 46
0.0
 50
0.0
 44
0.0
 45
0.0
 49
0.125
 74
     4
 75
     0
340
0
 46
0.0
 50
0.0
 44
0.0
 45
0.0
 49
-0.125
 74
     4
 75
     0
340
0
 46
0.0
 50
0.0
 44
0.0
 45
0.0
  0
LTYPE
  5
F0
330
5
100
AcDbSymbolTableRecord
100
AcDbLinetypeTableRecord
  2
HIDDEN2
 70
     0
  3
_ _ _ _ _ _ _ _ _ _ _ _ _ _ _ _ _ _ _ _ _ _ _ _
 72
    65
 73
     2
 40
0.1875
 49
0.125
 74
     4
 75
     0
340
0
 46
0.0
 50
0.0
 44
0.0
 45
0.0
 49
-0.0625
 74
     4
 75
     0
340
0
 46
0.0
 50
0.0
 44
0.0
 45
0.0
  0
ENDTAB
  0
TABLE
  2
LAYER
  5
2
330
0
100
AcDbSymbolTable
 70
     6
  0
LAYER
  5
10
330
2
100
AcDbSymbolTableRecord
100
AcDbLayerTableRecord
  2
0
 70
     0
 62
     7
  6
Continuous
370
    -3
390
F
  0
LAYER
  5
2A
330
2
100
AcDbSymbolTableRecord
100
AcDbLayerTableRecord
  2
Default
 70
     0
 62
     7
  6
Continuous
370
    -3
390
F
  0
LAYER
  5
5E
330
2
100
AcDbSymbolTableRecord
100
AcDbLayerTableRecord
  2
DV1_Default
 70
     0
 62
     7
  6
Continuous
370
    -3
390
F
  0
LAYER
  5
12E
330
2
100
AcDbSymbolTableRecord
100
AcDbLayerTableRecord
  2
DV2_Default
 70
     0
 62
     7
  6
Continuous
370
    -3
390
F
  0
LAYER
  5
266
330
2
100
AcDbSymbolTableRecord
100
AcDbLayerTableRecord
  2
DV3_Default
 70
     0
 62
     7
  6
Continuous
370
    -3
390
F
  0
LAYER
  5
416
330
2
100
AcDbSymbolTableRecord
100
AcDbLayerTableRecord
  2
BORDER
 70
     0
 62
     7
  6
Continuous
370
    -3
390
F
  0
ENDTAB
  0
TABLE
  2
STYLE
  5
3
330
0
100
AcDbSymbolTable
 70
     3
  0
STYLE
  5
11
330
3
100
AcDbSymbolTableRecord
100
AcDbTextStyleTableRecord
  2
Standard
 70
     0
 40
0.0
 41
1.0
 50
0.0
 71
     0
 42
0.2
  3
txt
  4

  0
STYLE
  5
31
330
3
100
AcDbSymbolTableRecord
100
AcDbTextStyleTableRecord
  2
SEACAD_semeca1_ttf
 70
     0
 40
0.2
 41
1.0
 50
0.0
 71
     0
 42
0.2
  3
semeca1.ttf
  4

  0
STYLE
  5
33
330
3
100
AcDbSymbolTableRecord
100
AcDbTextStyleTableRecord
  2
SEACAD_arial_ttf
 70
     0
 40
0.2
 41
1.0
 50
0.0
 71
     0
 42
0.2
  3
arial.ttf
  4

  0
ENDTAB
  0
TABLE
  2
VIEW
  5
6
330
0
100
AcDbSymbolTable
 70
     0
  0
ENDTAB
  0
TABLE
  2
UCS
  5
7
330
0
100
AcDbSymbolTable
 70
     0
  0
ENDTAB
  0
TABLE
  2
APPID
  5
9
330
0
100
AcDbSymbolTable
 70
     1
  0
APPID
  5
12
330
9
100
AcDbSymbolTableRecord
100
AcDbRegAppTableRecord
  2
ACAD
 70
     0
  0
ENDTAB
  0
TABLE
  2
DIMSTYLE
  5
A
330
0
100
AcDbSymbolTable
 70
     1
100
AcDbDimStyleTable
  0
DIMSTYLE
105
27
330
A
100
AcDbSymbolTableRecord
100
AcDbDimStyleTableRecord
  2
Standard
 70
     0
340
11
  0
ENDTAB
  0
TABLE
  2
BLOCK_RECORD
  5
1
330
0
100
AcDbSymbolTable
 70
    40
  0
BLOCK_RECORD
  5
1F
330
1
100
AcDbSymbolTableRecord
100
AcDbBlockTableRecord
  2
*Model_Space
340
22
  0
BLOCK_RECORD
  5
1B
330
1
100
AcDbSymbolTableRecord
100
AcDbBlockTableRecord
  2
*Paper_Space
340
1E
  0
BLOCK_RECORD
  5
2B
330
1
100
AcDbSymbolTableRecord
100
AcDbBlockTableRecord
  2
SEANNOT_GROUP
340
0
102
{BLKREFS
331
2C
102
}
  0
BLOCK_RECORD
  5
37
330
1
100
AcDbSymbolTableRecord
100
AcDbBlockTableRecord
  2
SEANNOT_GROUP1
340
0
102
{BLKREFS
331
38
102
}
  0
BLOCK_RECORD
  5
41
330
1
100
AcDbSymbolTableRecord
100
AcDbBlockTableRecord
  2
SEANNOT_GROUP2
340
0
102
{BLKREFS
331
42
102
}
  0
BLOCK_RECORD
  5
4A
330
1
100
AcDbSymbolTableRecord
100
AcDbBlockTableRecord
  2
SEANNOT_GROUP3
340
0
102
{BLKREFS
331
4B
102
}
  0
BLOCK_RECORD
  5
53
330
1
100
AcDbSymbolTableRecord
100
AcDbBlockTableRecord
  2
SEANNOT_GROUP4
340
0
102
{BLKREFS
331
54
102
}
  0
BLOCK_RECORD
  5
5C
330
1
100
AcDbSymbolTableRecord
100
AcDbBlockTableRecord
  2
SE
340
0
102
{BLKREFS
331
5D
102
}
  0
BLOCK_RECORD
  5
120
330
1
100
AcDbSymbolTableRecord
100
AcDbBlockTableRecord
  2
GDimGGroup
340
0
102
{BLKREFS
331
121
102
}
  0
BLOCK_RECORD
  5
12C
330
1
100
AcDbSymbolTableRecord
100
AcDbBlockTableRecord
  2
SE1
340
0
102
{BLKREFS
331
12D
102
}
  0
BLOCK_RECORD
  5
219
330
1
100
AcDbSymbolTableRecord
100
AcDbBlockTableRecord
  2
GDimGGroup1
340
0
102
{BLKREFS
331
21A
102
}
  0
BLOCK_RECORD
  5
225
330
1
100
AcDbSymbolTableRecord
100
AcDbBlockTableRecord
  2
GDimGGroup2
340
0
102
{BLKREFS
331
226
102
}
  0
BLOCK_RECORD
  5
231
330
1
100
AcDbSymbolTableRecord
100
AcDbBlockTableRecord
  2
GDimGGroup3
340
0
102
{BLKREFS
331
232
102
}
  0
BLOCK_RECORD
  5
23E
330
1
100
AcDbSymbolTableRecord
100
AcDbBlockTableRecord
  2
GDimGGroup4
340
0
102
{BLKREFS
331
23F
102
}
  0
BLOCK_RECORD
  5
24C
330
1
100
AcDbSymbolTableRecord
100
AcDbBlockTableRecord
  2
GDimGGroup5
340
0
102
{BLKREFS
331
24D
102
}
  0
BLOCK_RECORD
  5
258
330
1
100
AcDbSymbolTableRecord
100
AcDbBlockTableRecord
  2
GDimGGroup6
340
0
102
{BLKREFS
331
259
102
}
  0
BLOCK_RECORD
  5
264
330
1
100
AcDbSymbolTableRecord
100
AcDbBlockTableRecord
  2
SE2
340
0
102
{BLKREFS
331
265
102
}
  0
BLOCK_RECORD
  5
2F1
330
1
100
AcDbSymbolTableRecord
100
AcDbBlockTableRecord
  2
GDimGGroup7
340
0
102
{BLKREFS
331
2F2
102
}
  0
BLOCK_RECORD
  5
2FD
330
1
100
AcDbSymbolTableRecord
100
AcDbBlockTableRecord
  2
GDimGGroup8
340
0
102
{BLKREFS
331
2FE
102
}
  0
BLOCK_RECORD
  5
30A
330
1
100
AcDbSymbolTableRecord
100
AcDbBlockTableRecord
  2
GDimGGroup9
340
0
102
{BLKREFS
331
30B
102
}
  0
BLOCK_RECORD
  5
316
330
1
100
AcDbSymbolTableRecord
100
AcDbBlockTableRecord
  2
GDimGGroup10
340
0
102
{BLKREFS
331
317
102
}
  0
BLOCK_RECORD
  5
322
330
1
100
AcDbSymbolTableRecord
100
AcDbBlockTableRecord
  2
GDimGGroup11
340
0
102
{BLKREFS
331
323
102
}
  0
BLOCK_RECORD
  5
32E
330
1
100
AcDbSymbolTableRecord
100
AcDbBlockTableRecord
  2
GDimGGroup12
340
0
102
{BLKREFS
331
32F
102
}
  0
BLOCK_RECORD
  5
33A
330
1
100
AcDbSymbolTableRecord
100
AcDbBlockTableRecord
  2
GDimGGroup13
340
0
102
{BLKREFS
331
33B
102
}
  0
BLOCK_RECORD
  5
346
330
1
100
AcDbSymbolTableRecord
100
AcDbBlockTableRecord
  2
GDimGGroup14
340
0
102
{BLKREFS
331
347
102
}
  0
BLOCK_RECORD
  5
351
330
1
100
AcDbSymbolTableRecord
100
AcDbBlockTableRecord
  2
GDimGGroup15
340
0
102
{BLKREFS
331
352
102
}
  0
BLOCK_RECORD
  5
35E
330
1
100
AcDbSymbolTableRecord
100
AcDbBlockTableRecord
  2
GDimGGroup16
340
0
102
{BLKREFS
331
35F
102
}
  0
BLOCK_RECORD
  5
369
330
1
100
AcDbSymbolTableRecord
100
AcDbBlockTableRecord
  2
GDimGGroup17
340
0
102
{BLKREFS
331
36A
102
}
  0
BLOCK_RECORD
  5
375
330
1
100
AcDbSymbolTableRecord
100
AcDbBlockTableRecord
  2
GDimGGroup18
340
0
102
{BLKREFS
331
376
102
}
  0
BLOCK_RECORD
  5
381
330
1
100
AcDbSymbolTableRecord
100
AcDbBlockTableRecord
  2
GDimGGroup19
340
0
102
{BLKREFS
331
382
102
}
  0
BLOCK_RECORD
  5
38C
330
1
100
AcDbSymbolTableRecord
100
AcDbBlockTableRecord
  2
GDimGGroup20
340
0
102
{BLKREFS
331
38D
102
}
  0
BLOCK_RECORD
  5
398
330
1
100
AcDbSymbolTableRecord
100
AcDbBlockTableRecord
  2
GDimGGroup21
340
0
102
{BLKREFS
331
399
102
}
  0
BLOCK_RECORD
  5
3A2
330
1
100
AcDbSymbolTableRecord
100
AcDbBlockTableRecord
  2
GDimGGroup22
340
0
102
{BLKREFS
331
3A3
102
}
  0
BLOCK_RECORD
  5
3AE
330
1
100
AcDbSymbolTableRecord
100
AcDbBlockTableRecord
  2
GDimGGroup23
340
0
102
{BLKREFS
331
3AF
102
}
  0
BLOCK_RECORD
  5
3BA
330
1
100
AcDbSymbolTableRecord
100
AcDbBlockTableRecord
  2
GDimGGroup24
340
0
102
{BLKREFS
331
3BB
102
}
  0
BLOCK_RECORD
  5
3C8
330
1
100
AcDbSymbolTableRecord
100
AcDbBlockTableRecord
  2
GDimGGroup25
340
0
102
{BLKREFS
331
3C9
102
}
  0
BLOCK_RECORD
  5
3D6
330
1
100
AcDbSymbolTableRecord
100
AcDbBlockTableRecord
  2
GDimGGroup26
340
0
102
{BLKREFS
331
3D7
102
}
  0
BLOCK_RECORD
  5
3E3
330
1
100
AcDbSymbolTableRecord
100
AcDbBlockTableRecord
  2
GDimGGroup27
340
0
102
{BLKREFS
331
3E4
102
}
  0
BLOCK_RECORD
  5
3F0
330
1
100
AcDbSymbolTableRecord
100
AcDbBlockTableRecord
  2
GDimGGroup28
340
0
102
{BLKREFS
331
3F1
102
}
  0
BLOCK_RECORD
  5
3FD
330
1
100
AcDbSymbolTableRecord
100
AcDbBlockTableRecord
  2
GDimGGroup29
340
0
102
{BLKREFS
331
3FE
102
}
  0
BLOCK_RECORD
  5
408
330
1
100
AcDbSymbolTableRecord
100
AcDbBlockTableRecord
  2
GDimGGroup30
340
0
102
{BLKREFS
331
409
102
}
  0
ENDTAB
  0
ENDSEC
  0
SECTION
  2
BLOCKS
  0
BLOCK
  5
20
330
1F
100
AcDbEntity
  8
0
100
AcDbBlockBegin
  2
*Model_Space
 70
     0
 71
     0
 10
0.0
 20
0.0
 30
0.0
  3
*Model_Space
  1

  0
ENDBLK
  5
21
330
1F
100
AcDbEntity
  8
0
100
AcDbBlockEnd
  0
BLOCK
  5
1C
330
1B
100
AcDbEntity
 67
     1
  8
0
100
AcDbBlockBegin
  2
*Paper_Space
 70
     0
 71
     0
 10
0.0
 20
0.0
 30
0.0
  3
*Paper_Space
  1

  0
ENDBLK
  5
1D
330
1B
100
AcDbEntity
 67
     1
  8
0
100
AcDbBlockEnd
  0
BLOCK
  5
35
330
2B
100
AcDbEntity
  8
0
100
AcDbBlockBegin
  2
SEANNOT_GROUP
 70
     0
 71
     0
 10
0.0
 20
0.0
 30
0.0
  3
SEANNOT_GROUP
  1

  0
LWPOLYLINE
  5
2D
330
2B
100
AcDbEntity
  8
Default
  6
Continuous
 62
     7
 48
25.4
100
AcDbPolyline
 90
        2
 70
     0
 43
0.0
 10
245.19892455
 20
269.6934142753
 10
245.19892455
 20
243.7035527202
  0
HATCH
  5
2E
330
2B
100
AcDbEntity
  8
Default
  6
Continuous
 62
     7
 48
25.4
100
AcDbHatch
 10
0.0
 20
0.0
 30
0.0
210
0.0
220
0.0
230
1.0
  2
SOLID
 70
     1
 71
     0
 91
        1
 92
        1
 93
        3
 72
     1
 10
244.5322578516252
 20
247.7035529102213
 11
245.1989245499568
 21
243.7035527202314
 72
     1
 10
245.1989245499568
 20
243.7035527202314
 11
245.8655912482884
 21
247.7035529102213
 72
     1
 10
245.8655912482884
 20
247.7035529102213
 11
244.5322578516252
 21
247.7035529102213
 97
        0
 75
     0
 76
     1
 98
        0
  0
LWPOLYLINE
  5
2F
330
2B
100
AcDbEntity
  8
Default
  6
Continuous
 62
     7
 48
25.4
370
    30
100
AcDbPolyline
 90
        4
 70
     1
 43
0.00035
 10
244.5322578516
 20
247.7035529102
 10
245.19892455
 20
243.7035527202
 10
245.8655912483
 20
247.7035529102
 10
244.5322578516
 20
247.7035529102
  0
LINE
  5
30
330
2B
100
AcDbEntity
  8
Default
  6
Continuous
 62
     7
 48
25.4
100
AcDbLine
 10
226.9860498726
 20
243.7035527202
 30
0.0
 11
247.19892455
 21
243.7035527202
 31
0.0
  0
TEXT
  5
32
330
2B
100
AcDbEntity
  8
Default
  6
Continuous
 62
     7
 48
25.4
100
AcDbText
 10
246.59892455
 20
267.6934142753
 30
0.0
 40
4.0
  1
O
  7
SEACAD_semeca1_ttf
 11
246.59892455
 21
271.6934142753
 31
0.0
100
AcDbText
 73
     3
  0
TEXT
  5
34
330
2B
100
AcDbEntity
  8
Default
  6
Continuous
 62
     7
 48
25.4
100
AcDbText
 10
251.1603280587
 20
267.6934142753
 30
0.0
 40
4.0
  1
104.8
  7
SEACAD_arial_ttf
 11
251.1603280587
 21
271.6934142753
 31
0.0
100
AcDbText
 73
     3
  0
ENDBLK
  5
36
330
2B
100
AcDbEntity
  8
0
100
AcDbBlockEnd
  0
BLOCK
  5
3F
330
37
100
AcDbEntity
  8
0
100
AcDbBlockBegin
  2
SEANNOT_GROUP1
 70
     0
 71
     0
 10
0.0
 20
0.0
 30
0.0
  3
SEANNOT_GROUP1
  1

  0
LWPOLYLINE
  5
39
330
37
100
AcDbEntity
  8
Default
  6
Continuous
 62
     7
 48
25.4
100
AcDbPolyline
 90
        2
 70
     0
 43
0.0
 10
250.9236644839
 20
389.2750920577
 10
220.0185705674
 20
368.7021701265
  0
HATCH
  5
3A
330
37
100
AcDbEntity
  8
Default
  6
Continuous
 62
     7
 48
25.4
100
AcDbHatch
 10
0.0
 20
0.0
 30
0.0
210
0.0
220
0.0
230
1.0
  2
SOLID
 70
     1
 71
     0
 91
        1
 92
        1
 93
        3
 72
     1
 10
222.9788652594288
 20
371.4736501179158
 11
220.0185705673729
 21
368.702170126509
 72
     1
 10
220.0185705673729
 20
368.702170126509
 11
223.7177077057199
 21
370.3637448128486
 72
     1
 10
223.7177077057199
 20
370.3637448128486
 11
222.9788652594288
 21
371.4736501179158
 97
        0
 75
     0
 76
     1
 98
        0
  0
LWPOLYLINE
  5
3B
330
37
100
AcDbEntity
  8
Default
  6
Continuous
 62
     7
 48
25.4
370
    30
100
AcDbPolyline
 90
        4
 70
     1
 43
0.00035
 10
222.9788652594
 20
371.4736501179
 10
220.0185705674
 20
368.7021701265
 10
223.7177077057
 20
370.3637448128
 10
222.9788652594
 20
371.4736501179
  0
LINE
  5
3C
330
37
100
AcDbEntity
  8
Default
  6
Continuous
 62
     7
 48
25.4
100
AcDbLine
 10
250.9236644839
 20
389.2750920577
 30
0.0
 11
322.7642441941
 21
389.2750920577
 31
0.0
  0
TEXT
  5
3D
330
37
100
AcDbEntity
  8
Default
  6
Continuous
 62
     7
 48
25.4
100
AcDbText
 10
250.9236644839
 20
390.2750920577
 30
0.0
 40
4.0
  1
SERRATION PITCH 1.5X60
  7
SEACAD_arial_ttf
 11
250.9236644839
 21
394.2750920577
 31
0.0
100
AcDbText
 73
     3
  0
TEXT
  5
3E
330
37
100
AcDbEntity
  8
Default
  6
Continuous
 62
     7
 48
25.4
100
AcDbText
 10
321.0975775274
 20
390.2750920577
 30
0.0
 40
4.0
  1
°
  7
SEACAD_arial_ttf
 11
321.0975775274
 21
394.2750920577
 31
0.0
100
AcDbText
 73
     3
  0
ENDBLK
  5
40
330
37
100
AcDbEntity
  8
0
100
AcDbBlockEnd
  0
BLOCK
  5
48
330
41
100
AcDbEntity
  8
0
100
AcDbBlockBegin
  2
SEANNOT_GROUP2
 70
     0
 71
     0
 10
0.0
 20
0.0
 30
0.0
  3
SEANNOT_GROUP2
  1

  0
LWPOLYLINE
  5
43
330
41
100
AcDbEntity
  8
Default
  6
Continuous
 62
     7
 48
25.4
100
AcDbPolyline
 90
        2
 70
     0
 43
0.0
 10
91.8286167262
 20
204.815507579
 10
115.4465341457
 20
238.7035527202
  0
HATCH
  5
44
330
41
100
AcDbEntity
  8
Default
  6
Continuous
 62
     7
 48
25.4
100
AcDbHatch
 10
0.0
 20
0.0
 30
0.0
210
0.0
220
0.0
230
1.0
  2
SOLID
 70
     1
 71
     0
 91
        1
 92
        1
 93
        3
 72
     1
 10
113.7063699587021
 20
235.0407294090645
 11
115.4465341457129
 21
238.7035527202314
 72
     1
 10
115.4465341457129
 20
238.7035527202314
 11
112.6124901922161
 21
235.8030974324823
 72
     1
 10
112.6124901922161
 20
235.8030974324823
 11
113.7063699587022
 21
235.0407294090645
 97
        0
 75
     0
 76
     1
 98
        0
  0
LWPOLYLINE
  5
45
330
41
100
AcDbEntity
  8
Default
  6
Continuous
 62
     7
 48
25.4
370
    30
100
AcDbPolyline
 90
        4
 70
     1
 43
0.00035
 10
113.7063699587
 20
235.0407294091
 10
115.4465341457
 20
238.7035527202
 10
112.6124901922
 20
235.8030974325
 10
113.7063699587
 20
235.0407294091
  0
LINE
  5
46
330
41
100
AcDbEntity
  8
Default
  6
Continuous
 62
     7
 48
25.4
100
AcDbLine
 10
91.8286167262
 20
204.815507579
 30
0.0
 11
76.0025297696
 21
204.815507579
 31
0.0
  0
TEXT
  5
47
330
41
100
AcDbEntity
  8
Default
  6
Continuous
 62
     7
 48
25.4
100
AcDbText
 10
76.0025297696
 20
205.815507579
 30
0.0
 40
4.0
  1
3-M10
  7
SEACAD_arial_ttf
 11
76.0025297696
 21
209.815507579
 31
0.0
100
AcDbText
 73
     3
  0
ENDBLK
  5
49
330
41
100
AcDbEntity
  8
0
100
AcDbBlockEnd
  0
BLOCK
  5
51
330
4A
100
AcDbEntity
  8
0
100
AcDbBlockBegin
  2
SEANNOT_GROUP3
 70
     0
 71
     0
 10
0.0
 20
0.0
 30
0.0
  3
SEANNOT_GROUP3
  1

  0
LWPOLYLINE
  5
4C
330
4A
100
AcDbEntity
  8
Default
  6
Continuous
 62
     7
 48
25.4
100
AcDbPolyline
 90
        2
 70
     0
 43
0.0
 10
170.8297385855
 20
342.1097882864
 10
158.4381246748
 20
316.1049875596
  0
HATCH
  5
4D
330
4A
100
AcDbEntity
  8
Default
  6
Continuous
 62
     7
 48
25.4
100
AcDbHatch
 10
0.0
 20
0.0
 30
0.0
210
0.0
220
0.0
230
1.0
  2
SOLID
 70
     1
 71
     0
 91
        1
 92
        1
 93
        3
 72
     1
 10
159.5569752718233
 20
320.0027586339971
 11
158.4381246748356
 21
316.1049875596261
 72
     1
 10
158.4381246748357
 20
316.1049875596261
 11
160.7606388312416
 21
319.4291978417649
 72
     1
 10
160.7606388312416
 20
319.4291978417649
 11
159.5569752718233
 21
320.0027586339971
 97
        0
 75
     0
 76
     1
 98
        0
  0
LWPOLYLINE
  5
4E
330
4A
100
AcDbEntity
  8
Default
  6
Continuous
 62
     7
 48
25.4
370
    30
100
AcDbPolyline
 90
        4
 70
     1
 43
0.00035
 10
159.5569752718
 20
320.002758634
 10
158.4381246748
 20
316.1049875596
 10
160.7606388312
 20
319.4291978418
 10
159.5569752718
 20
320.002758634
  0
LINE
  5
4F
330
4A
100
AcDbEntity
  8
Default
  6
Continuous
 62
     7
 48
25.4
100
AcDbLine
 10
170.8297385855
 20
342.1097882864
 30
0.0
 11
206.5688690203
 21
342.1097882864
 31
0.0
  0
TEXT
  5
50
330
4A
100
AcDbEntity
  8
Default
  6
Continuous
 62
     7
 48
25.4
100
AcDbText
 10
170.8297385855
 20
343.1097882864
 30
0.0
 40
4.0
  1
MAX M38X1.5
  7
SEACAD_arial_ttf
 11
170.8297385855
 21
347.1097882864
 31
0.0
100
AcDbText
 73
     3
  0
ENDBLK
  5
52
330
4A
100
AcDbEntity
  8
0
100
AcDbBlockEnd
  0
BLOCK
  5
5A
330
53
100
AcDbEntity
  8
0
100
AcDbBlockBegin
  2
SEANNOT_GROUP4
 70
     0
 71
     0
 10
0.0
 20
0.0
 30
0.0
  3
SEANNOT_GROUP4
  1

  0
LWPOLYLINE
  5
55
330
53
100
AcDbEntity
  8
Default
  6
Continuous
 62
     7
 48
25.4
100
AcDbPolyline
 90
        2
 70
     0
 43
0.0
 10
392.5111187057
 20
374.6945049596
 10
412.930066567
 20
349.7017009021
  0
HATCH
  5
56
330
53
100
AcDbEntity
  8
Default
  6
Continuous
 62
     7
 48
25.4
100
AcDbHatch
 10
0.0
 20
0.0
 30
0.0
210
0.0
220
0.0
230
1.0
  2
SOLID
 70
     1
 71
     0
 91
        1
 92
        1
 93
        3
 72
     1
 10
409.8830494480957
 20
352.3775433271593
 11
412.9300665669929
 21
349.7017009021031
 72
     1
 10
412.9300665669929
 20
349.7017009021032
 11
410.915593862649
 21
353.2211249643663
 72
     1
 10
410.915593862649
 20
353.2211249643663
 11
409.8830494480957
 21
352.3775433271594
 97
        0
 75
     0
 76
     1
 98
        0
  0
LWPOLYLINE
  5
57
330
53
100
AcDbEntity
  8
Default
  6
Continuous
 62
     7
 48
25.4
370
    30
100
AcDbPolyline
 90
        4
 70
     1
 43
0.00035
 10
409.8830494481
 20
352.3775433272
 10
412.930066567
 20
349.7017009021
 10
410.9155938626
 20
353.2211249644
 10
409.8830494481
 20
352.3775433272
  0
LINE
  5
58
330
53
100
AcDbEntity
  8
Default
  6
Continuous
 62
     7
 48
25.4
100
AcDbLine
 10
392.5111187057
 20
374.6945049596
 30
0.0
 11
379.8154665318
 21
374.6945049596
 31
0.0
  0
TEXT
  5
59
330
53
100
AcDbEntity
  8
Default
  6
Continuous
 62
     7
 48
25.4
100
AcDbText
 10
379.8154665318
 20
375.6945049596
 30
0.0
 40
4.0
  1
3-M6
  7
SEACAD_arial_ttf
 11
379.8154665318
 21
379.6945049596
 31
0.0
100
AcDbText
 73
     3
  0
ENDBLK
  5
5B
330
53
100
AcDbEntity
  8
0
100
AcDbBlockEnd
  0
BLOCK
  5
11E
330
5C
100
AcDbEntity
  8
0
100
AcDbBlockBegin
  2
SE
 70
     0
 71
     0
 10
0.0
 20
0.0
 30
0.0
  3
SE
  1

  0
LINE
  5
5F
330
5C
100
AcDbEntity
  8
DV1_Default
  6
Continuous
 62
     7
 48
25.4
100
AcDbLine
 10
443.4300666678
 20
377.3741513295
 30
0.0
 11
456.4300666678
 21
377.3741513295
 31
0.0
  0
LINE
  5
60
330
5C
100
AcDbEntity
  8
DV1_Default
  6
Continuous
 62
     7
 48
25.4
100
AcDbLine
 10
445.9300666678
 20
311.3741513295
 30
0.0
 11
443.4300666678
 21
311.3741513295
 31
0.0
  0
LINE
  5
61
330
5C
100
AcDbEntity
  8
DV1_Default
  6
Continuous
 62
     7
 48
25.4
100
AcDbLine
 10
445.9300666678
 20
311.3741513295
 30
0.0
 11
456.4300666678
 21
317.4363291559
 31
0.0
  0
LINE
  5
62
330
5C
100
AcDbEntity
  8
DV1_Default
  6
Continuous
 62
     7
 48
25.4
100
AcDbLine
 10
456.4300666678
 20
377.3741513295
 30
0.0
 11
456.4300666678
 21
317.4363291559
 31
0.0
  0
LINE
  5
63
330
5C
100
AcDbEntity
  8
DV1_Default
  6
Continuous
 62
     7
 48
25.4
100
AcDbLine
 10
443.4300666678
 20
377.3741513295
 30
0.0
 11
430.4300666678
 21
377.3741513295
 31
0.0
  0
LINE
  5
64
330
5C
100
AcDbEntity
  8
DV1_Default
  6
Continuous
 62
     7
 48
25.4
100
AcDbLine
 10
440.9300666678
 20
311.3741513295
 30
0.0
 11
443.4300666678
 21
311.3741513295
 31
0.0
  0
LINE
  5
65
330
5C
100
AcDbEntity
  8
DV1_Default
  6
Continuous
 62
     7
 48
25.4
100
AcDbLine
 10
440.9300666678
 20
311.3741513295
 30
0.0
 11
430.4300666678
 21
317.4363291559
 31
0.0
  0
LINE
  5
66
330
5C
100
AcDbEntity
  8
DV1_Default
  6
Continuous
 62
     7
 48
25.4
100
AcDbLine
 10
430.4300666678
 20
377.3741513295
 30
0.0
 11
430.4300666678
 21
317.4363291559
 31
0.0
  0
LINE
  5
67
330
5C
100
AcDbEntity
  8
DV1_Default
  6
Continuous
 62
     7
 48
25.4
100
AcDbLine
 10
430.4300532756
 20
324.1191185299
 30
0.0
 11
428.4300532756
 21
324.1191185299
 31
0.0
  0
CIRCLE
  5
68
330
5C
100
AcDbEntity
  8
DV1_Default
  6
Continuous
 62
     7
 48
25.4
100
AcDbCircle
 10
443.4300666678
 20
263.6241513295
 30
0.0
 40
5.0
  0
LINE
  5
69
330
5C
100
AcDbEntity
  8
DV1_Default
  6
Continuous
 62
     7
 48
25.4
100
AcDbLine
 10
443.3934744977
 20
265.1241282435
 30
0.0
 11
442.094436392
 21
264.3741282435
 31
0.0
  0
LINE
  5
6A
330
5C
100
AcDbEntity
  8
DV1_Default
  6
Continuous
 62
     7
 48
25.4
100
AcDbLine
 10
442.094436392
 20
264.3741282435
 30
0.0
 11
442.094436392
 21
262.8741282435
 31
0.0
  0
LINE
  5
6B
330
5C
100
AcDbEntity
  8
DV1_Default
  6
Continuous
 62
     7
 48
25.4
100
AcDbLine
 10
442.094436392
 20
262.8741282435
 30
0.0
 11
443.3934744977
 21
262.1241282435
 31
0.0
  0
LINE
  5
6C
330
5C
100
AcDbEntity
  8
DV1_Default
  6
Continuous
 62
     7
 48
25.4
100
AcDbLine
 10
443.3934744977
 20
262.1241282435
 30
0.0
 11
444.6925126034
 21
262.8741282435
 31
0.0
  0
LINE
  5
6D
330
5C
100
AcDbEntity
  8
DV1_Default
  6
Continuous
 62
     7
 48
25.4
100
AcDbLine
 10
444.6925126034
 20
262.8741282435
 30
0.0
 11
444.6925126034
 21
264.3741282435
 31
0.0
  0
LINE
  5
6E
330
5C
100
AcDbEntity
  8
DV1_Default
  6
Continuous
 62
     7
 48
25.4
100
AcDbLine
 10
444.6925126034
 20
264.3741282435
 30
0.0
 11
443.3934744977
 21
265.1241282435
 31
0.0
  0
CIRCLE
  5
6F
330
5C
100
AcDbEntity
  8
DV1_Default
  6
Continuous
 62
     7
 48
25.4
100
AcDbCircle
 10
443.4300666678
 20
365.3741513295
 30
0.0
 40
8.499999999999998
  0
CIRCLE
  5
70
330
5C
100
AcDbEntity
  8
DV1_Default
  6
Continuous
 62
     7
 48
25.4
100
AcDbCircle
 10
443.4300666678
 20
345.3741513295
 30
0.0
 40
8.5
  0
CIRCLE
  5
71
330
5C
100
AcDbEntity
  8
DV1_Default
  6
Continuous
 62
     7
 48
25.4
100
AcDbCircle
 10
443.4300666678
 20
345.3741513295
 30
0.0
 40
8.0
  0
CIRCLE
  5
72
330
5C
100
AcDbEntity
  8
DV1_Default
  6
Continuous
 62
     7
 48
25.4
100
AcDbCircle
 10
443.4300666678
 20
365.3741513295
 30
0.0
 40
7.999999999999998
  0
LINE
  5
73
330
5C
100
AcDbEntity
  8
DV1_Default
  6
Continuous
 62
     7
 48
25.4
100
AcDbLine
 10
443.4300666678
 20
350.3741513295
 30
0.0
 11
439.0999396489
 21
347.8741513295
 31
0.0
  0
LINE
  5
74
330
5C
100
AcDbEntity
  8
DV1_Default
  6
Continuous
 62
     7
 48
25.4
100
AcDbLine
 10
439.0999396489
 20
347.8741513295
 30
0.0
 11
439.0999396489
 21
342.8741513295
 31
0.0
  0
LINE
  5
75
330
5C
100
AcDbEntity
  8
DV1_Default
  6
Continuous
 62
     7
 48
25.4
100
AcDbLine
 10
439.0999396489
 20
342.8741513295
 30
0.0
 11
443.4300666678
 21
340.3741513295
 31
0.0
  0
LINE
  5
76
330
5C
100
AcDbEntity
  8
DV1_Default
  6
Continuous
 62
     7
 48
25.4
100
AcDbLine
 10
443.4300666678
 20
340.3741513295
 30
0.0
 11
447.7601936867
 21
342.8741513295
 31
0.0
  0
LINE
  5
77
330
5C
100
AcDbEntity
  8
DV1_Default
  6
Continuous
 62
     7
 48
25.4
100
AcDbLine
 10
447.7601936867
 20
342.8741513295
 30
0.0
 11
447.7601936867
 21
347.8741513295
 31
0.0
  0
LINE
  5
78
330
5C
100
AcDbEntity
  8
DV1_Default
  6
Continuous
 62
     7
 48
25.4
100
AcDbLine
 10
447.7601936867
 20
347.8741513295
 30
0.0
 11
443.4300666678
 21
350.3741513295
 31
0.0
  0
LINE
  5
79
330
5C
100
AcDbEntity
  8
DV1_Default
  6
Continuous
 62
     7
 48
25.4
100
AcDbLine
 10
443.4300666678
 20
370.3741513295
 30
0.0
 11
439.0999396489
 21
367.8741513295
 31
0.0
  0
LINE
  5
7A
330
5C
100
AcDbEntity
  8
DV1_Default
  6
Continuous
 62
     7
 48
25.4
100
AcDbLine
 10
439.0999396489
 20
367.8741513295
 30
0.0
 11
439.0999396489
 21
362.8741513295
 31
0.0
  0
LINE
  5
7B
330
5C
100
AcDbEntity
  8
DV1_Default
  6
Continuous
 62
     7
 48
25.4
100
AcDbLine
 10
439.0999396489
 20
362.8741513295
 30
0.0
 11
443.4300666678
 21
360.3741513295
 31
0.0
  0
LINE
  5
7C
330
5C
100
AcDbEntity
  8
DV1_Default
  6
Continuous
 62
     7
 48
25.4
100
AcDbLine
 10
443.4300666678
 20
360.3741513295
 30
0.0
 11
447.7601936867
 21
362.8741513295
 31
0.0
  0
LINE
  5
7D
330
5C
100
AcDbEntity
  8
DV1_Default
  6
Continuous
 62
     7
 48
25.4
100
AcDbLine
 10
447.7601936867
 20
362.8741513295
 30
0.0
 11
447.7601936867
 21
367.8741513295
 31
0.0
  0
LINE
  5
7E
330
5C
100
AcDbEntity
  8
DV1_Default
  6
Continuous
 62
     7
 48
25.4
100
AcDbLine
 10
447.7601936867
 20
367.8741513295
 30
0.0
 11
443.4300666678
 21
370.3741513295
 31
0.0
  0
LINE
  5
7F
330
5C
100
AcDbEntity
  8
DV1_Default
  6
Continuous
 62
     7
 48
25.4
100
AcDbLine
 10
443.4300666678
 20
381.1241513295
 30
0.0
 11
428.4300666678
 21
381.1241513295
 31
0.0
  0
LINE
  5
80
330
5C
100
AcDbEntity
  8
DV1_Default
  6
Continuous
 62
     7
 48
25.4
100
AcDbLine
 10
428.4300666678
 20
381.1241513295
 30
0.0
 11
418.7708084049
 21
378.5359608784
 31
0.0
  0
LINE
  5
81
330
5C
100
AcDbEntity
  8
DV1_Default
  6
Continuous
 62
     7
 48
25.4
100
AcDbLine
 10
428.4300532756
 20
324.1191185299
 30
0.0
 11
428.4300666678
 21
381.1241513295
 31
0.0
  0
LINE
  5
82
330
5C
100
AcDbEntity
  8
DV1_Default
  6
Continuous
 62
     7
 48
25.4
100
AcDbLine
 10
443.4300666678
 20
377.3741513295
 30
0.0
 11
456.4300666678
 21
377.3741513295
 31
0.0
  0
LINE
  5
83
330
5C
100
AcDbEntity
  8
DV1_Default
  6
Continuous
 62
     7
 48
25.4
100
AcDbLine
 10
456.43008006
 20
324.1191185299
 30
0.0
 11
458.43008006
 21
324.1191185299
 31
0.0
  0
LINE
  5
84
330
5C
100
AcDbEntity
  8
DV1_Default
  6
Continuous
 62
     7
 48
25.4
100
AcDbLine
 10
443.4300666678
 20
381.1241513295
 30
0.0
 11
458.4300666678
 21
381.1241513295
 31
0.0
  0
LINE
  5
85
330
5C
100
AcDbEntity
  8
DV1_Default
  6
Continuous
 62
     7
 48
25.4
100
AcDbLine
 10
458.4300666678
 20
381.1241513295
 30
0.0
 11
468.0893249307
 21
378.5359608784
 31
0.0
  0
LINE
  5
86
330
5C
100
AcDbEntity
  8
DV1_Default
  6
Continuous
 62
     7
 48
25.4
100
AcDbLine
 10
458.43008006
 20
324.1191185299
 30
0.0
 11
458.4300666678
 21
381.1241513295
 31
0.0
  0
ARC
  5
87
330
5C
100
AcDbEntity
  8
DV1_Default
  6
Continuous
 62
     7
 48
25.4
100
AcDbCircle
 10
443.4300666678
 20
296.8741513295
 30
0.0
 40
82.5
100
AcDbArc
 50
220.4756822149
 51
319.5243177851
  0
LINE
  5
88
330
5C
100
AcDbEntity
  8
DV1_Default
  6
Continuous
 62
     7
 48
25.4
100
AcDbLine
 10
437.4300666678
 20
377.3741513295
 30
0.0
 11
437.4300666678
 21
381.1241513295
 31
0.0
  0
LINE
  5
89
330
5C
100
AcDbEntity
  8
DV1_Default
  6
Continuous
 62
     7
 48
25.4
100
AcDbLine
 10
449.4300666678
 20
377.3741513295
 30
0.0
 11
449.4300666678
 21
381.1241513295
 31
0.0
  0
LINE
  5
8A
330
5C
100
AcDbEntity
  8
DV1_Default
  6
Continuous
 62
     7
 48
25.4
100
AcDbLine
 10
428.430055396
 20
333.1448304222
 30
0.0
 11
430.4300666678
 21
333.1448304222
 31
0.0
  0
LINE
  5
8B
330
5C
100
AcDbEntity
  8
DV1_Default
  6
Continuous
 62
     7
 48
25.4
100
AcDbLine
 10
458.4300779396
 20
333.1448304222
 30
0.0
 11
456.4300666678
 21
333.1448304222
 31
0.0
  0
LINE
  5
8C
330
5C
100
AcDbEntity
  8
DV1_Default
  6
Continuous
 62
     7
 48
25.4
100
AcDbLine
 10
418.7708084049
 20
378.5359608784
 30
0.0
 11
418.7708084049
 21
375.6026149365
 31
0.0
  0
LINE
  5
8D
330
5C
100
AcDbEntity
  8
DV1_Default
  6
Continuous
 62
     7
 48
25.4
100
AcDbLine
 10
468.0893249307
 20
378.5359608784
 30
0.0
 11
468.0893249307
 21
375.6026149365
 31
0.0
  0
LINE
  5
8F
330
5C
100
AcDbEntity
  8
DV1_Default
  6
CENTER2
 62
     7
 48
25.4
100
AcDbLine
 10
453.0236271013
 20
365.3741513295
 30
0.0
 11
434.0236271013
 21
365.3741513295
 31
0.0
  0
LINE
  5
90
330
5C
100
AcDbEntity
  8
DV1_Default
  6
CENTER2
 62
     7
 48
25.4
100
AcDbLine
 10
453.0236271013
 20
345.3741513295
 30
0.0
 11
434.0236271013
 21
345.3741513295
 31
0.0
  0
CIRCLE
  5
91
330
5C
100
AcDbEntity
  8
DV1_Default
  6
Continuous
 62
     7
 48
25.4
100
AcDbCircle
 10
443.4300666678
 20
296.8741513295
 30
0.0
 40
10.0
  0
CIRCLE
  5
92
330
5C
100
AcDbEntity
  8
DV1_Default
  6
Continuous
 62
     7
 48
25.4
100
AcDbCircle
 10
443.4300666678
 20
296.8741513295
 30
0.0
 40
14.0
  0
LINE
  5
93
330
5C
100
AcDbEntity
  8
DV1_Default
  6
Continuous
 62
     7
 48
25.4
100
AcDbLine
 10
373.7150216631
 20
256.6241513295
 30
0.0
 11
367.2150216631
 21
267.8824815786
 31
0.0
  0
LINE
  5
94
330
5C
100
AcDbEntity
  8
DV1_Default
  6
Continuous
 62
     7
 48
25.4
100
AcDbLine
 10
429.6226983129
 20
291.7892148389
 30
0.0
 11
430.8726983129
 21
289.6241513295
 31
0.0
  0
LINE
  5
95
330
5C
100
AcDbEntity
  8
DV1_Default
  6
Continuous
 62
     7
 48
25.4
100
AcDbLine
 10
429.6226983129
 20
291.7892148389
 30
0.0
 11
419.1226983129
 21
297.8513926654
 31
0.0
  0
LINE
  5
96
330
5C
100
AcDbEntity
  8
DV1_Default
  6
Continuous
 62
     7
 48
25.4
100
AcDbLine
 10
367.2150216631
 20
267.8824815786
 30
0.0
 11
419.1226983129
 21
297.8513926654
 31
0.0
  0
LINE
  5
97
330
5C
100
AcDbEntity
  8
DV1_Default
  6
Continuous
 62
     7
 48
25.4
100
AcDbLine
 10
373.7150216631
 20
256.6241513295
 30
0.0
 11
380.2150216631
 21
245.3658210803
 31
0.0
  0
LINE
  5
98
330
5C
100
AcDbEntity
  8
DV1_Default
  6
Continuous
 62
     7
 48
25.4
100
AcDbLine
 10
432.1226983129
 20
287.45908782
 30
0.0
 11
430.8726983129
 21
289.6241513295
 31
0.0
  0
LINE
  5
99
330
5C
100
AcDbEntity
  8
DV1_Default
  6
Continuous
 62
     7
 48
25.4
100
AcDbLine
 10
432.1226983129
 20
287.45908782
 30
0.0
 11
432.1226983129
 21
275.334732167
 31
0.0
  0
LINE
  5
9A
330
5C
100
AcDbEntity
  8
DV1_Default
  6
Continuous
 62
     7
 48
25.4
100
AcDbLine
 10
380.2150216631
 20
245.3658210803
 30
0.0
 11
432.1226983129
 21
275.334732167
 31
0.0
  0
LINE
  5
9B
330
5C
100
AcDbEntity
  8
DV1_Default
  6
Continuous
 62
     7
 48
25.4
100
AcDbLine
 10
426.335239643
 20
271.993325882
 30
0.0
 11
427.335239643
 21
270.2612750745
 31
0.0
  0
CIRCLE
  5
9C
330
5C
100
AcDbEntity
  8
DV1_Default
  6
Continuous
 62
     7
 48
25.4
100
AcDbCircle
 10
384.1073265086
 20
262.6241513295
 30
0.0
 40
8.499999999999998
  0
CIRCLE
  5
9D
330
5C
100
AcDbEntity
  8
DV1_Default
  6
Continuous
 62
     7
 48
25.4
100
AcDbCircle
 10
401.4278345843
 20
272.6241513295
 30
0.0
 40
8.5
  0
CIRCLE
  5
9E
330
5C
100
AcDbEntity
  8
DV1_Default
  6
Continuous
 62
     7
 48
25.4
100
AcDbCircle
 10
401.4278345843
 20
272.6241513295
 30
0.0
 40
8.0
  0
CIRCLE
  5
9F
330
5C
100
AcDbEntity
  8
DV1_Default
  6
Continuous
 62
     7
 48
25.4
100
AcDbCircle
 10
384.1073265086
 20
262.6241513295
 30
0.0
 40
7.999999999999998
  0
LINE
  5
A0
330
5C
100
AcDbEntity
  8
DV1_Default
  6
Continuous
 62
     7
 48
25.4
100
AcDbLine
 10
397.0977075653
 20
270.1241513295
 30
0.0
 11
401.4278345843
 21
267.6241513295
 31
0.0
  0
LINE
  5
A1
330
5C
100
AcDbEntity
  8
DV1_Default
  6
Continuous
 62
     7
 48
25.4
100
AcDbLine
 10
401.4278345843
 20
267.6241513295
 30
0.0
 11
405.7579616032
 21
270.1241513295
 31
0.0
  0
LINE
  5
A2
330
5C
100
AcDbEntity
  8
DV1_Default
  6
Continuous
 62
     7
 48
25.4
100
AcDbLine
 10
405.7579616032
 20
270.1241513295
 30
0.0
 11
405.7579616032
 21
275.1241513295
 31
0.0
  0
LINE
  5
A3
330
5C
100
AcDbEntity
  8
DV1_Default
  6
Continuous
 62
     7
 48
25.4
100
AcDbLine
 10
405.7579616032
 20
275.1241513295
 30
0.0
 11
401.4278345843
 21
277.6241513295
 31
0.0
  0
LINE
  5
A4
330
5C
100
AcDbEntity
  8
DV1_Default
  6
Continuous
 62
     7
 48
25.4
100
AcDbLine
 10
401.4278345843
 20
277.6241513295
 30
0.0
 11
397.0977075653
 21
275.1241513295
 31
0.0
  0
LINE
  5
A5
330
5C
100
AcDbEntity
  8
DV1_Default
  6
Continuous
 62
     7
 48
25.4
100
AcDbLine
 10
397.0977075653
 20
275.1241513295
 30
0.0
 11
397.0977075653
 21
270.1241513295
 31
0.0
  0
LINE
  5
A6
330
5C
100
AcDbEntity
  8
DV1_Default
  6
Continuous
 62
     7
 48
25.4
100
AcDbLine
 10
379.7771994896
 20
260.1241513295
 30
0.0
 11
384.1073265086
 21
257.6241513295
 31
0.0
  0
LINE
  5
A7
330
5C
100
AcDbEntity
  8
DV1_Default
  6
Continuous
 62
     7
 48
25.4
100
AcDbLine
 10
384.1073265086
 20
257.6241513295
 30
0.0
 11
388.4374535275
 21
260.1241513295
 31
0.0
  0
LINE
  5
A8
330
5C
100
AcDbEntity
  8
DV1_Default
  6
Continuous
 62
     7
 48
25.4
100
AcDbLine
 10
388.4374535275
 20
260.1241513295
 30
0.0
 11
388.4374535275
 21
265.1241513295
 31
0.0
  0
LINE
  5
A9
330
5C
100
AcDbEntity
  8
DV1_Default
  6
Continuous
 62
     7
 48
25.4
100
AcDbLine
 10
388.4374535275
 20
265.1241513295
 30
0.0
 11
384.1073265086
 21
267.6241513295
 31
0.0
  0
LINE
  5
AA
330
5C
100
AcDbEntity
  8
DV1_Default
  6
Continuous
 62
     7
 48
25.4
100
AcDbLine
 10
384.1073265086
 20
267.6241513295
 30
0.0
 11
379.7771994896
 21
265.1241513295
 31
0.0
  0
LINE
  5
AB
330
5C
100
AcDbEntity
  8
DV1_Default
  6
Continuous
 62
     7
 48
25.4
100
AcDbLine
 10
379.7771994896
 20
265.1241513295
 30
0.0
 11
379.7771994896
 21
260.1241513295
 31
0.0
  0
LINE
  5
AC
330
5C
100
AcDbEntity
  8
DV1_Default
  6
Continuous
 62
     7
 48
25.4
100
AcDbLine
 10
370.467426399
 20
254.7491513295
 30
0.0
 11
377.967426399
 21
241.7587702727
 31
0.0
  0
LINE
  5
AD
330
5C
100
AcDbEntity
  8
DV1_Default
  6
Continuous
 62
     7
 48
25.4
100
AcDbLine
 10
377.967426399
 20
241.7587702727
 30
0.0
 11
385.0384942108
 21
234.6877024608
 31
0.0
  0
LINE
  5
AE
330
5C
100
AcDbEntity
  8
DV1_Default
  6
Continuous
 62
     7
 48
25.4
100
AcDbLine
 10
427.335239643
 20
270.2612750745
 30
0.0
 11
377.967426399
 21
241.7587702727
 31
0.0
  0
LINE
  5
AF
330
5C
100
AcDbEntity
  8
DV1_Default
  6
Continuous
 62
     7
 48
25.4
100
AcDbLine
 10
373.7150216631
 20
256.6241513295
 30
0.0
 11
367.2150216631
 21
267.8824815786
 31
0.0
  0
LINE
  5
B0
330
5C
100
AcDbEntity
  8
DV1_Default
  6
Continuous
 62
     7
 48
25.4
100
AcDbLine
 10
413.3352262508
 20
294.5100095764
 30
0.0
 11
412.3352262508
 21
296.242060384
 31
0.0
  0
LINE
  5
B1
330
5C
100
AcDbEntity
  8
DV1_Default
  6
Continuous
 62
     7
 48
25.4
100
AcDbLine
 10
370.467426399
 20
254.7491513295
 30
0.0
 11
362.967426399
 21
267.7395323862
 31
0.0
  0
LINE
  5
B2
330
5C
100
AcDbEntity
  8
DV1_Default
  6
Continuous
 62
     7
 48
25.4
100
AcDbLine
 10
362.967426399
 20
267.7395323862
 30
0.0
 11
360.3792359479
 21
277.3987906491
 31
0.0
  0
LINE
  5
B3
330
5C
100
AcDbEntity
  8
DV1_Default
  6
Continuous
 62
     7
 48
25.4
100
AcDbLine
 10
412.3352262508
 20
296.242060384
 30
0.0
 11
362.967426399
 21
267.7395323862
 31
0.0
  0
LINE
  5
B4
330
5C
100
AcDbEntity
  8
DV1_Default
  6
Continuous
 62
     7
 48
25.4
100
AcDbLine
 10
376.7150216631
 20
251.4279989067
 30
0.0
 11
373.467426399
 21
249.5529989067
 31
0.0
  0
LINE
  5
B5
330
5C
100
AcDbEntity
  8
DV1_Default
  6
Continuous
 62
     7
 48
25.4
100
AcDbLine
 10
370.7150216631
 20
261.8203037522
 30
0.0
 11
367.467426399
 21
259.9453037522
 31
0.0
  0
LINE
  5
B6
330
5C
100
AcDbEntity
  8
DV1_Default
  6
Continuous
 62
     7
 48
25.4
100
AcDbLine
 10
419.5187427969
 20
265.7484209647
 30
0.0
 11
418.518737161
 21
267.4804815339
 31
0.0
  0
LINE
  5
B7
330
5C
100
AcDbEntity
  8
DV1_Default
  6
Continuous
 62
     7
 48
25.4
100
AcDbLine
 10
404.5187315251
 20
291.7292026015
 30
0.0
 11
405.518737161
 21
289.9971420323
 31
0.0
  0
LINE
  5
B8
330
5C
100
AcDbEntity
  8
DV1_Default
  6
Continuous
 62
     7
 48
25.4
100
AcDbLine
 10
385.0384942108
 20
234.6877024608
 30
0.0
 11
387.5788463146
 21
236.1543754318
 31
0.0
  0
LINE
  5
B9
330
5C
100
AcDbEntity
  8
DV1_Default
  6
Continuous
 62
     7
 48
25.4
100
AcDbLine
 10
360.3792359479
 20
277.3987906491
 30
0.0
 11
362.9195880517
 21
278.8654636201
 31
0.0
  0
LINE
  5
BA
330
5C
100
AcDbEntity
  8
DV1_Default
  6
CENTER2
 62
     7
 48
25.4
100
AcDbLine
 10
379.3105462918
 20
270.9324183776
 30
0.0
 11
388.8105462918
 21
254.4779357057
 31
0.0
  0
LINE
  5
BB
330
5C
100
AcDbEntity
  8
DV1_Default
  6
CENTER2
 62
     7
 48
25.4
100
AcDbLine
 10
396.6310543675
 20
280.9324183776
 30
0.0
 11
406.1310543675
 21
264.4779357057
 31
0.0
  0
LINE
  5
BC
330
5C
100
AcDbEntity
  8
DV1_Default
  6
Continuous
 62
     7
 48
25.4
100
AcDbLine
 10
513.1451116724
 20
256.6241513295
 30
0.0
 11
506.6451116724
 21
245.3658210803
 31
0.0
  0
LINE
  5
BD
330
5C
100
AcDbEntity
  8
DV1_Default
  6
Continuous
 62
     7
 48
25.4
100
AcDbLine
 10
454.7374350227
 20
287.45908782
 30
0.0
 11
455.9874350227
 21
289.6241513295
 31
0.0
  0
LINE
  5
BE
330
5C
100
AcDbEntity
  8
DV1_Default
  6
Continuous
 62
     7
 48
25.4
100
AcDbLine
 10
454.7374350227
 20
287.45908782
 30
0.0
 11
454.7374350227
 21
275.334732167
 31
0.0
  0
LINE
  5
BF
330
5C
100
AcDbEntity
  8
DV1_Default
  6
Continuous
 62
     7
 48
25.4
100
AcDbLine
 10
506.6451116724
 20
245.3658210803
 30
0.0
 11
454.7374350227
 21
275.334732167
 31
0.0
  0
LINE
  5
C0
330
5C
100
AcDbEntity
  8
DV1_Default
  6
Continuous
 62
     7
 48
25.4
100
AcDbLine
 10
513.1451116724
 20
256.6241513295
 30
0.0
 11
519.6451116724
 21
267.8824815786
 31
0.0
  0
LINE
  5
C1
330
5C
100
AcDbEntity
  8
DV1_Default
  6
Continuous
 62
     7
 48
25.4
100
AcDbLine
 10
457.2374350227
 20
291.7892148389
 30
0.0
 11
455.9874350227
 21
289.6241513295
 31
0.0
  0
LINE
  5
C2
330
5C
100
AcDbEntity
  8
DV1_Default
  6
Continuous
 62
     7
 48
25.4
100
AcDbLine
 10
457.2374350227
 20
291.7892148389
 30
0.0
 11
467.7374350227
 21
297.8513926654
 31
0.0
  0
LINE
  5
C3
330
5C
100
AcDbEntity
  8
DV1_Default
  6
Continuous
 62
     7
 48
25.4
100
AcDbLine
 10
519.6451116724
 20
267.8824815786
 30
0.0
 11
467.7374350227
 21
297.8513926654
 31
0.0
  0
LINE
  5
C4
330
5C
100
AcDbEntity
  8
DV1_Default
  6
Continuous
 62
     7
 48
25.4
100
AcDbLine
 10
473.5249070848
 20
294.5100095764
 30
0.0
 11
474.5249070848
 21
296.242060384
 31
0.0
  0
CIRCLE
  5
C5
330
5C
100
AcDbEntity
  8
DV1_Default
  6
Continuous
 62
     7
 48
25.4
100
AcDbCircle
 10
502.752806827
 20
262.6241513295
 30
0.0
 40
8.499999999999998
  0
CIRCLE
  5
C6
330
5C
100
AcDbEntity
  8
DV1_Default
  6
Continuous
 62
     7
 48
25.4
100
AcDbCircle
 10
485.4322987513
 20
272.6241513295
 30
0.0
 40
8.5
  0
CIRCLE
  5
C7
330
5C
100
AcDbEntity
  8
DV1_Default
  6
Continuous
 62
     7
 48
25.4
100
AcDbCircle
 10
485.4322987513
 20
272.6241513295
 30
0.0
 40
8.0
  0
CIRCLE
  5
C8
330
5C
100
AcDbEntity
  8
DV1_Default
  6
Continuous
 62
     7
 48
25.4
100
AcDbCircle
 10
502.752806827
 20
262.6241513295
 30
0.0
 40
7.999999999999998
  0
LINE
  5
C9
330
5C
100
AcDbEntity
  8
DV1_Default
  6
Continuous
 62
     7
 48
25.4
100
AcDbLine
 10
489.7624257703
 20
270.1241513295
 30
0.0
 11
489.7624257703
 21
275.1241513295
 31
0.0
  0
LINE
  5
CA
330
5C
100
AcDbEntity
  8
DV1_Default
  6
Continuous
 62
     7
 48
25.4
100
AcDbLine
 10
489.7624257703
 20
275.1241513295
 30
0.0
 11
485.4322987513
 21
277.6241513295
 31
0.0
  0
LINE
  5
CB
330
5C
100
AcDbEntity
  8
DV1_Default
  6
Continuous
 62
     7
 48
25.4
100
AcDbLine
 10
485.4322987513
 20
277.6241513295
 30
0.0
 11
481.1021717324
 21
275.1241513295
 31
0.0
  0
LINE
  5
CC
330
5C
100
AcDbEntity
  8
DV1_Default
  6
Continuous
 62
     7
 48
25.4
100
AcDbLine
 10
481.1021717324
 20
275.1241513295
 30
0.0
 11
481.1021717324
 21
270.1241513295
 31
0.0
  0
LINE
  5
CD
330
5C
100
AcDbEntity
  8
DV1_Default
  6
Continuous
 62
     7
 48
25.4
100
AcDbLine
 10
481.1021717324
 20
270.1241513295
 30
0.0
 11
485.4322987513
 21
267.6241513295
 31
0.0
  0
LINE
  5
CE
330
5C
100
AcDbEntity
  8
DV1_Default
  6
Continuous
 62
     7
 48
25.4
100
AcDbLine
 10
485.4322987513
 20
267.6241513295
 30
0.0
 11
489.7624257703
 21
270.1241513295
 31
0.0
  0
LINE
  5
CF
330
5C
100
AcDbEntity
  8
DV1_Default
  6
Continuous
 62
     7
 48
25.4
100
AcDbLine
 10
507.082933846
 20
260.1241513295
 30
0.0
 11
507.082933846
 21
265.1241513295
 31
0.0
  0
LINE
  5
D0
330
5C
100
AcDbEntity
  8
DV1_Default
  6
Continuous
 62
     7
 48
25.4
100
AcDbLine
 10
507.082933846
 20
265.1241513295
 30
0.0
 11
502.752806827
 21
267.6241513295
 31
0.0
  0
LINE
  5
D1
330
5C
100
AcDbEntity
  8
DV1_Default
  6
Continuous
 62
     7
 48
25.4
100
AcDbLine
 10
502.752806827
 20
267.6241513295
 30
0.0
 11
498.4226798081
 21
265.1241513295
 31
0.0
  0
LINE
  5
D2
330
5C
100
AcDbEntity
  8
DV1_Default
  6
Continuous
 62
     7
 48
25.4
100
AcDbLine
 10
498.4226798081
 20
265.1241513295
 30
0.0
 11
498.4226798081
 21
260.1241513295
 31
0.0
  0
LINE
  5
D3
330
5C
100
AcDbEntity
  8
DV1_Default
  6
Continuous
 62
     7
 48
25.4
100
AcDbLine
 10
498.4226798081
 20
260.1241513295
 30
0.0
 11
502.752806827
 21
257.6241513295
 31
0.0
  0
LINE
  5
D4
330
5C
100
AcDbEntity
  8
DV1_Default
  6
Continuous
 62
     7
 48
25.4
100
AcDbLine
 10
502.752806827
 20
257.6241513295
 30
0.0
 11
507.082933846
 21
260.1241513295
 31
0.0
  0
LINE
  5
D5
330
5C
100
AcDbEntity
  8
DV1_Default
  6
Continuous
 62
     7
 48
25.4
100
AcDbLine
 10
516.3927069366
 20
254.7491513295
 30
0.0
 11
523.8927069366
 21
267.7395323862
 31
0.0
  0
LINE
  5
D6
330
5C
100
AcDbEntity
  8
DV1_Default
  6
Continuous
 62
     7
 48
25.4
100
AcDbLine
 10
523.8927069366
 20
267.7395323862
 30
0.0
 11
526.4808973877
 21
277.3987906491
 31
0.0
  0
LINE
  5
D7
330
5C
100
AcDbEntity
  8
DV1_Default
  6
Continuous
 62
     7
 48
25.4
100
AcDbLine
 10
474.5249070848
 20
296.242060384
 30
0.0
 11
523.8927069366
 21
267.7395323862
 31
0.0
  0
LINE
  5
D8
330
5C
100
AcDbEntity
  8
DV1_Default
  6
Continuous
 62
     7
 48
25.4
100
AcDbLine
 10
513.1451116724
 20
256.6241513295
 30
0.0
 11
506.6451116724
 21
245.3658210803
 31
0.0
  0
LINE
  5
D9
330
5C
100
AcDbEntity
  8
DV1_Default
  6
Continuous
 62
     7
 48
25.4
100
AcDbLine
 10
460.5248936926
 20
271.993325882
 30
0.0
 11
459.5248936926
 21
270.2612750745
 31
0.0
  0
LINE
  5
DA
330
5C
100
AcDbEntity
  8
DV1_Default
  6
Continuous
 62
     7
 48
25.4
100
AcDbLine
 10
516.3927069366
 20
254.7491513295
 30
0.0
 11
508.8927069366
 21
241.7587702727
 31
0.0
  0
LINE
  5
DB
330
5C
100
AcDbEntity
  8
DV1_Default
  6
Continuous
 62
     7
 48
25.4
100
AcDbLine
 10
508.8927069366
 20
241.7587702727
 30
0.0
 11
501.8216391248
 21
234.6877024608
 31
0.0
  0
LINE
  5
DC
330
5C
100
AcDbEntity
  8
DV1_Default
  6
Continuous
 62
     7
 48
25.4
100
AcDbLine
 10
459.5248936926
 20
270.2612750745
 30
0.0
 11
508.8927069366
 21
241.7587702727
 31
0.0
  0
LINE
  5
DD
330
5C
100
AcDbEntity
  8
DV1_Default
  6
Continuous
 62
     7
 48
25.4
100
AcDbLine
 10
516.1451116724
 20
261.8203037522
 30
0.0
 11
519.3927069366
 21
259.9453037522
 31
0.0
  0
LINE
  5
DE
330
5C
100
AcDbEntity
  8
DV1_Default
  6
Continuous
 62
     7
 48
25.4
100
AcDbLine
 10
510.1451116724
 20
251.4279989067
 30
0.0
 11
513.3927069366
 21
249.5529989067
 31
0.0
  0
LINE
  5
DF
330
5C
100
AcDbEntity
  8
DV1_Default
  6
Continuous
 62
     7
 48
25.4
100
AcDbLine
 10
482.3414018105
 20
291.7292026015
 30
0.0
 11
481.3413961746
 21
289.9971420323
 31
0.0
  0
LINE
  5
E0
330
5C
100
AcDbEntity
  8
DV1_Default
  6
Continuous
 62
     7
 48
25.4
100
AcDbLine
 10
467.3413905387
 20
265.7484209647
 30
0.0
 11
468.3413961746
 21
267.4804815339
 31
0.0
  0
LINE
  5
E1
330
5C
100
AcDbEntity
  8
DV1_Default
  6
Continuous
 62
     7
 48
25.4
100
AcDbLine
 10
526.4808973877
 20
277.3987906491
 30
0.0
 11
523.9405452839
 21
278.8654636201
 31
0.0
  0
LINE
  5
E2
330
5C
100
AcDbEntity
  8
DV1_Default
  6
Continuous
 62
     7
 48
25.4
100
AcDbLine
 10
501.8216391248
 20
234.6877024608
 30
0.0
 11
499.281287021
 21
236.1543754318
 31
0.0
  0
LINE
  5
E3
330
5C
100
AcDbEntity
  8
DV1_Default
  6
CENTER2
 62
     7
 48
25.4
100
AcDbLine
 10
497.9560266103
 20
254.3158842813
 30
0.0
 11
507.4560266103
 21
270.7703669532
 31
0.0
  0
LINE
  5
E4
330
5C
100
AcDbEntity
  8
DV1_Default
  6
CENTER2
 62
     7
 48
25.4
100
AcDbLine
 10
480.6355185346
 20
264.3158842813
 30
0.0
 11
490.1355185346
 21
280.7703669532
 31
0.0
  0
ARC
  5
E5
330
5C
100
AcDbEntity
  8
DV1_Default
  6
Continuous
 62
     7
 48
25.4
100
AcDbCircle
 10
443.4300666678
 20
296.8741513295
 30
0.0
 40
39.25
100
AcDbArc
 50
232.4679076936
 51
307.5320923064
  0
ARC
  5
E6
330
5C
100
AcDbEntity
  8
DV1_Default
  6
Continuous
 62
     7
 48
25.4
100
AcDbCircle
 10
443.4300666678
 20
296.8741513295
 30
0.0
 40
39.25
100
AcDbArc
 50
112.4679076936
 51
187.5320923064
  0
ARC
  5
E7
330
5C
100
AcDbEntity
  8
DV1_Default
  6
Continuous
 62
     7
 48
25.4
100
AcDbCircle
 10
443.4300666678
 20
296.8741513295
 30
0.0
 40
82.5
100
AcDbArc
 50
100.4756822149
 51
199.5243177851
  0
ARC
  5
E8
330
5C
100
AcDbEntity
  8
DV1_Default
  6
Continuous
 62
     7
 48
25.4
100
AcDbCircle
 10
443.4300666678
 20
296.8741513295
 30
0.0
 40
39.25
100
AcDbArc
 50
352.4679076936
 51
67.5320923064
  0
ARC
  5
E9
330
5C
100
AcDbEntity
  8
DV1_Default
  6
Continuous
 62
     7
 48
25.4
100
AcDbCircle
 10
443.4300666678
 20
296.8741513295
 30
0.0
 40
82.5
100
AcDbArc
 50
340.4756822149
 51
79.5243177851
  0
ARC
  5
EA
330
5C
100
AcDbEntity
  8
DV1_Default
  6
CENTER2
 62
     7
 48
25.4
100
AcDbCircle
 10
443.4300666678
 20
296.8741513295
 30
0.0
 40
52.40000000000001
100
AcDbArc
 50
260.794926415
 51
279.4036924025
  0
CIRCLE
  5
EB
330
5C
100
AcDbEntity
  8
DV1_Default
  6
Continuous
 62
     7
 48
25.4
100
AcDbCircle
 10
443.5208902931
 20
244.4742300407
 30
0.0
 40
6.0
  0
CIRCLE
  5
EC
330
5C
100
AcDbEntity
  8
DV1_Default
  6
Continuous
 62
     7
 48
25.4
100
AcDbCircle
 10
443.5208902931
 20
244.4742300407
 30
0.0
 40
8.5
  0
LINE
  5
ED
330
5C
100
AcDbEntity
  8
DV1_Default
  6
CENTER2
 62
     7
 48
25.4
100
AcDbLine
 10
350.9300666678
 20
296.8741513295
 30
0.0
 11
535.9300666678
 21
296.8741513295
 31
0.0
  0
LINE
  5
EE
330
5C
100
AcDbEntity
  8
DV1_Default
  6
CENTER2
 62
     7
 48
25.4
100
AcDbLine
 10
443.4300666678
 20
296.8741513295
 30
0.0
 11
525.7024800273
 21
249.3741513295
 31
0.0
  0
LINE
  5
EF
330
5C
100
AcDbEntity
  8
DV1_Default
  6
CENTER2
 62
     7
 48
25.4
100
AcDbLine
 10
443.4300666678
 20
296.8741513295
 30
0.0
 11
361.1576533083
 21
249.3741513295
 31
0.0
  0
CIRCLE
  5
F1
330
5C
100
AcDbEntity
  8
DV1_Default
  6
HIDDEN2
 62
     7
 48
25.4
100
AcDbCircle
 10
414.4300666678
 20
246.64467791
 30
0.0
 40
3.0
  0
CIRCLE
  5
F2
330
5C
100
AcDbEntity
  8
DV1_Default
  6
HIDDEN2
 62
     7
 48
25.4
100
AcDbCircle
 10
414.4300666678
 20
246.64467791
 30
0.0
 40
2.5
  0
LINE
  5
F3
330
5C
100
AcDbEntity
  8
DV1_Default
  6
CENTER2
 62
     7
 48
25.4
100
AcDbLine
 10
415.9300666678
 20
249.2427541213
 30
0.0
 11
412.9300666678
 21
244.0466016986
 31
0.0
  0
ARC
  5
F4
330
5C
100
AcDbEntity
  8
DV1_Default
  6
CENTER2
 62
     7
 48
25.4
100
AcDbCircle
 10
443.4300666678
 20
296.8741513295
 30
0.0
 40
58.0
100
AcDbArc
 50
237.0360947353
 51
242.9639052647
  0
ARC
  5
F5
330
5C
100
AcDbEntity
  8
DV1_Default
  6
CENTER2
 62
     7
 48
25.4
100
AcDbCircle
 10
443.4300666678
 20
296.8741513295
 30
0.0
 40
33.25
100
AcDbArc
 50
261.3759546333
 51
278.6240453667
  0
LINE
  5
F6
330
5C
100
AcDbEntity
  8
DV1_Default
  6
CENTER2
 62
     7
 48
25.4
100
AcDbLine
 10
443.4300666678
 20
268.6241513295
 30
0.0
 11
443.4300666678
 21
258.6241513295
 31
0.0
  0
CIRCLE
  5
F7
330
5C
100
AcDbEntity
  8
DV1_Default
  6
Continuous
 62
     7
 48
25.4
100
AcDbCircle
 10
414.634721992
 20
313.4991513295
 30
0.0
 40
5.0
  0
LINE
  5
F8
330
5C
100
AcDbEntity
  8
DV1_Default
  6
Continuous
 62
     7
 48
25.4
100
AcDbLine
 10
415.9520361896
 20
312.7808526213
 30
0.0
 11
415.9520361896
 21
314.2808526213
 31
0.0
  0
LINE
  5
F9
330
5C
100
AcDbEntity
  8
DV1_Default
  6
Continuous
 62
     7
 48
25.4
100
AcDbLine
 10
415.9520361896
 20
314.2808526213
 30
0.0
 11
414.652998084
 21
315.0308526213
 31
0.0
  0
LINE
  5
FA
330
5C
100
AcDbEntity
  8
DV1_Default
  6
Continuous
 62
     7
 48
25.4
100
AcDbLine
 10
414.652998084
 20
315.0308526213
 30
0.0
 11
413.3539599783
 21
314.2808526213
 31
0.0
  0
LINE
  5
FB
330
5C
100
AcDbEntity
  8
DV1_Default
  6
Continuous
 62
     7
 48
25.4
100
AcDbLine
 10
413.3539599783
 20
314.2808526213
 30
0.0
 11
413.3539599783
 21
312.7808526213
 31
0.0
  0
LINE
  5
FC
330
5C
100
AcDbEntity
  8
DV1_Default
  6
Continuous
 62
     7
 48
25.4
100
AcDbLine
 10
413.3539599783
 20
312.7808526213
 30
0.0
 11
414.652998084
 21
312.0308526213
 31
0.0
  0
LINE
  5
FD
330
5C
100
AcDbEntity
  8
DV1_Default
  6
Continuous
 62
     7
 48
25.4
100
AcDbLine
 10
414.652998084
 20
312.0308526213
 30
0.0
 11
415.9520361896
 21
312.7808526213
 31
0.0
  0
LINE
  5
FE
330
5C
100
AcDbEntity
  8
DV1_Default
  6
Continuous
 62
     7
 48
25.4
100
AcDbLine
 10
430.4300532756
 20
324.1191185299
 30
0.0
 11
428.4300532756
 21
324.1191185299
 31
0.0
  0
LINE
  5
FF
330
5C
100
AcDbEntity
  8
DV1_Default
  6
Continuous
 62
     7
 48
25.4
100
AcDbLine
 10
428.430055396
 20
333.1448304222
 30
0.0
 11
430.4300666678
 21
333.1448304222
 31
0.0
  0
ARC
  5
100
330
5C
100
AcDbEntity
  8
DV1_Default
  6
CENTER2
 62
     7
 48
25.4
100
AcDbCircle
 10
443.4300666678
 20
296.8741513295
 30
0.0
 40
52.40000000000001
100
AcDbArc
 50
140.794926415
 51
159.4036924025
  0
CIRCLE
  5
101
330
5C
100
AcDbEntity
  8
DV1_Default
  6
Continuous
 62
     7
 48
25.4
100
AcDbCircle
 10
398.0049918627
 20
322.995456407
 30
0.0
 40
6.0
  0
CIRCLE
  5
102
330
5C
100
AcDbEntity
  8
DV1_Default
  6
Continuous
 62
     7
 48
25.4
100
AcDbCircle
 10
398.0049918627
 20
322.995456407
 30
0.0
 40
8.5
  0
CIRCLE
  5
103
330
5C
100
AcDbEntity
  8
DV1_Default
  6
HIDDEN2
 62
     7
 48
25.4
100
AcDbCircle
 10
414.4300666678
 20
347.1036247489
 30
0.0
 40
3.0
  0
CIRCLE
  5
104
330
5C
100
AcDbEntity
  8
DV1_Default
  6
HIDDEN2
 62
     7
 48
25.4
100
AcDbCircle
 10
414.4300666678
 20
347.1036247489
 30
0.0
 40
2.5
  0
LINE
  5
105
330
5C
100
AcDbEntity
  8
DV1_Default
  6
CENTER2
 62
     7
 48
25.4
100
AcDbLine
 10
415.9300666678
 20
344.5055485376
 30
0.0
 11
412.9300666678
 21
349.7017009603
 31
0.0
  0
ARC
  5
106
330
5C
100
AcDbEntity
  8
DV1_Default
  6
CENTER2
 62
     7
 48
25.4
100
AcDbCircle
 10
443.4300666678
 20
296.8741513295
 30
0.0
 40
58.0
100
AcDbArc
 50
117.0360947353
 51
122.9639052647
  0
ARC
  5
107
330
5C
100
AcDbEntity
  8
DV1_Default
  6
CENTER2
 62
     7
 48
25.4
100
AcDbCircle
 10
443.4300666678
 20
296.8741513295
 30
0.0
 40
33.25
100
AcDbArc
 50
141.3759546333
 51
158.6240453667
  0
LINE
  5
108
330
5C
100
AcDbEntity
  8
DV1_Default
  6
CENTER2
 62
     7
 48
25.4
100
AcDbLine
 10
405.411199373
 20
318.8243545964
 30
0.0
 11
390.6896079778
 21
327.3238693513
 31
0.0
  0
LINE
  5
109
330
5C
100
AcDbEntity
  8
DV1_Default
  6
CENTER2
 62
     7
 48
25.4
100
AcDbLine
 10
418.9648490109
 20
310.9991513295
 30
0.0
 11
410.304594973
 21
315.9991513295
 31
0.0
  0
CIRCLE
  5
10A
330
5C
100
AcDbEntity
  8
DV1_Default
  6
Continuous
 62
     7
 48
25.4
100
AcDbCircle
 10
472.2254113436
 20
313.4991513295
 30
0.0
 40
5.0
  0
LINE
  5
10B
330
5C
100
AcDbEntity
  8
DV1_Default
  6
Continuous
 62
     7
 48
25.4
100
AcDbLine
 10
470.944689316
 20
312.7174731236
 30
0.0
 11
472.2437274217
 21
311.9674731236
 31
0.0
  0
LINE
  5
10C
330
5C
100
AcDbEntity
  8
DV1_Default
  6
Continuous
 62
     7
 48
25.4
100
AcDbLine
 10
472.2437274217
 20
311.9674731236
 30
0.0
 11
473.5427655274
 21
312.7174731236
 31
0.0
  0
LINE
  5
10D
330
5C
100
AcDbEntity
  8
DV1_Default
  6
Continuous
 62
     7
 48
25.4
100
AcDbLine
 10
473.5427655274
 20
312.7174731236
 30
0.0
 11
473.5427655274
 21
314.2174731236
 31
0.0
  0
LINE
  5
10E
330
5C
100
AcDbEntity
  8
DV1_Default
  6
Continuous
 62
     7
 48
25.4
100
AcDbLine
 10
473.5427655274
 20
314.2174731236
 30
0.0
 11
472.2437274217
 21
314.9674731236
 31
0.0
  0
LINE
  5
10F
330
5C
100
AcDbEntity
  8
DV1_Default
  6
Continuous
 62
     7
 48
25.4
100
AcDbLine
 10
472.2437274217
 20
314.9674731236
 30
0.0
 11
470.944689316
 21
314.2174731236
 31
0.0
  0
LINE
  5
110
330
5C
100
AcDbEntity
  8
DV1_Default
  6
Continuous
 62
     7
 48
25.4
100
AcDbLine
 10
470.944689316
 20
314.2174731236
 30
0.0
 11
470.944689316
 21
312.7174731236
 31
0.0
  0
LINE
  5
111
330
5C
100
AcDbEntity
  8
DV1_Default
  6
Continuous
 62
     7
 48
25.4
100
AcDbLine
 10
473.5249070848
 20
294.5100095764
 30
0.0
 11
474.5249070848
 21
296.242060384
 31
0.0
  0
LINE
  5
112
330
5C
100
AcDbEntity
  8
DV1_Default
  6
Continuous
 62
     7
 48
25.4
100
AcDbLine
 10
482.3414018105
 20
291.7292026015
 30
0.0
 11
481.3413961746
 21
289.9971420323
 31
0.0
  0
ARC
  5
113
330
5C
100
AcDbEntity
  8
DV1_Default
  6
CENTER2
 62
     7
 48
25.4
100
AcDbCircle
 10
443.4300666678
 20
296.8741513295
 30
0.0
 40
52.40000000000001
100
AcDbArc
 50
20.794926415
 51
39.4036924025
  0
CIRCLE
  5
114
330
5C
100
AcDbEntity
  8
DV1_Default
  6
Continuous
 62
     7
 48
25.4
100
AcDbCircle
 10
488.7643178475
 20
323.1527675407
 30
0.0
 40
6.0
  0
CIRCLE
  5
115
330
5C
100
AcDbEntity
  8
DV1_Default
  6
Continuous
 62
     7
 48
25.4
100
AcDbCircle
 10
488.7643178475
 20
323.1527675407
 30
0.0
 40
8.5
  0
CIRCLE
  5
116
330
5C
100
AcDbEntity
  8
DV1_Default
  6
HIDDEN2
 62
     7
 48
25.4
100
AcDbCircle
 10
501.4300666678
 20
296.8741513295
 30
0.0
 40
3.0
  0
CIRCLE
  5
117
330
5C
100
AcDbEntity
  8
DV1_Default
  6
HIDDEN2
 62
     7
 48
25.4
100
AcDbCircle
 10
501.4300666678
 20
296.8741513295
 30
0.0
 40
2.5
  0
LINE
  5
118
330
5C
100
AcDbEntity
  8
DV1_Default
  6
CENTER2
 62
     7
 48
25.4
100
AcDbLine
 10
498.4300666678
 20
296.8741513295
 30
0.0
 11
504.4300666678
 21
296.8741513295
 31
0.0
  0
ARC
  5
119
330
5C
100
AcDbEntity
  8
DV1_Default
  6
CENTER2
 62
     7
 48
25.4
100
AcDbCircle
 10
443.4300666678
 20
296.8741513295
 30
0.0
 40
58.0
100
AcDbArc
 50
357.0360947353
 51
2.9639052647
  0
ARC
  5
11A
330
5C
100
AcDbEntity
  8
DV1_Default
  6
CENTER2
 62
     7
 48
25.4
100
AcDbCircle
 10
443.4300666678
 20
296.8741513295
 30
0.0
 40
33.25
100
AcDbArc
 50
21.3759546333
 51
38.6240453667
  0
LINE
  5
11B
330
5C
100
AcDbEntity
  8
DV1_Default
  6
CENTER2
 62
     7
 48
25.4
100
AcDbLine
 10
481.4489339626
 20
318.8243545964
 30
0.0
 11
496.1705253578
 21
327.3238693513
 31
0.0
  0
LINE
  5
11C
330
5C
100
AcDbEntity
  8
DV1_Default
  6
CENTER2
 62
     7
 48
25.4
100
AcDbLine
 10
467.8952843247
 20
310.9991513295
 30
0.0
 11
476.5555383626
 21
315.9991513295
 31
0.0
  0
LINE
  5
11D
330
5C
100
AcDbEntity
  8
DV1_Default
  6
CENTER2
 62
     7
 48
25.4
100
AcDbLine
 10
443.4300666678
 20
389.4042131908
 30
0.0
 11
443.4300666678
 21
204.4042131908
 31
0.0
  0
ENDBLK
  5
11F
330
5C
100
AcDbEntity
  8
0
100
AcDbBlockEnd
  0
BLOCK
  5
12A
330
120
100
AcDbEntity
  8
0
100
AcDbBlockBegin
  2
GDimGGroup
 70
     0
 71
     0
 10
0.0
 20
0.0
 30
0.0
  3
GDimGGroup
  1

  0
HATCH
  5
122
330
120
100
AcDbEntity
  8
Default
  6
Continuous
 62
     7
 48
25.4
100
AcDbHatch
 10
0.0
 20
0.0
 30
0.0
210
0.0
220
0.0
230
1.0
  2
SOLID
 70
     1
 71
     0
 91
        1
 92
        1
 93
        3
 72
     1
 10
452.4300664778058
 20
399.6828957419873
 11
452.4300664778058
 21
398.349562345324
 72
     1
 10
452.4300664778058
 20
398.349562345324
 11
456.4300666677956
 21
399.0162290436556
 72
     1
 10
456.4300666677956
 20
399.0162290436556
 11
452.4300664778058
 21
399.6828957419873
 97
        0
 75
     0
 76
     1
 98
        0
  0
LWPOLYLINE
  5
123
330
120
100
AcDbEntity
  8
Default
  6
Continuous
 62
     7
 48
25.4
370
    30
100
AcDbPolyline
 90
        4
 70
     1
 43
0.00035
 10
452.4300664778
 20
399.682895742
 10
456.4300666678
 20
399.0162290437
 10
452.4300664778
 20
398.3495623453
 10
452.4300664778
 20
399.682895742
  0
HATCH
  5
124
330
120
100
AcDbEntity
  8
Default
  6
Continuous
 62
     7
 48
25.4
100
AcDbHatch
 10
0.0
 20
0.0
 30
0.0
210
0.0
220
0.0
230
1.0
  2
SOLID
 70
     1
 71
     0
 91
        1
 92
        1
 93
        3
 72
     1
 10
434.4300663213436
 20
399.6828957419873
 11
430.4300661313538
 21
399.0162290436556
 72
     1
 10
430.4300661313538
 20
399.0162290436556
 11
434.4300663213436
 21
398.349562345324
 72
     1
 10
434.4300663213436
 20
398.349562345324
 11
434.4300663213436
 21
399.6828957419873
 97
        0
 75
     0
 76
     1
 98
        0
  0
LWPOLYLINE
  5
125
330
120
100
AcDbEntity
  8
Default
  6
Continuous
 62
     7
 48
25.4
370
    30
100
AcDbPolyline
 90
        4
 70
     1
 43
0.00035
 10
434.4300663213
 20
399.682895742
 10
430.4300661314
 20
399.0162290437
 10
434.4300663213
 20
398.3495623453
 10
434.4300663213
 20
399.682895742
  0
LINE
  5
126
330
120
100
AcDbEntity
  8
Default
  6
Continuous
 62
     7
 48
25.4
100
AcDbLine
 10
456.4300666678
 20
377.3741513295
 30
0.0
 11
456.4300666678
 21
401.0162291387
 31
0.0
  0
LINE
  5
127
330
120
100
AcDbEntity
  8
Default
  6
Continuous
 62
     7
 48
25.4
100
AcDbLine
 10
430.4300666678
 20
377.3741513295
 30
0.0
 11
430.4300666678
 21
401.0162291387
 31
0.0
  0
LINE
  5
128
330
120
100
AcDbEntity
  8
Default
  6
Continuous
 62
     7
 48
25.4
100
AcDbLine
 10
456.4300666678
 20
399.0162290437
 30
0.0
 11
430.4300661314
 21
399.0162290437
 31
0.0
  0
TEXT
  5
129
330
120
100
AcDbEntity
  8
Default
  6
Continuous
 62
     7
 48
25.4
100
AcDbText
 10
440.299631617
 20
400.0162290437
 30
0.0
 40
4.0
  1
26
  7
SEACAD_arial_ttf
 11
440.299631617
 21
404.0162290437
 31
0.0
100
AcDbText
 73
     3
  0
ENDBLK
  5
12B
330
120
100
AcDbEntity
  8
0
100
AcDbBlockEnd
  0
BLOCK
  5
217
330
12C
100
AcDbEntity
  8
0
100
AcDbBlockBegin
  2
SE1
 70
     0
 71
     0
 10
0.0
 20
0.0
 30
0.0
  3
SE1
  1

  0
LINE
  5
12F
330
12C
100
AcDbEntity
  8
DV2_Default
  6
Continuous
 62
     7
 48
25.4
100
AcDbLine
 10
217.0856397388
 20
252.2035527202
 30
0.0
 11
205.0856397388
 21
252.2035527202
 31
0.0
  0
LINE
  5
130
330
12C
100
AcDbEntity
  8
DV2_Default
  6
Continuous
 62
     7
 48
25.4
100
AcDbLine
 10
205.0856397388
 20
252.2035527202
 30
0.0
 11
205.0856397388
 21
243.7035527202
 31
0.0
  0
LINE
  5
131
330
12C
100
AcDbEntity
  8
DV2_Default
  6
Continuous
 62
     7
 48
25.4
100
AcDbLine
 10
205.0856397388
 20
251.7035527202
 30
0.0
 11
214.0856397388
 21
251.7035527202
 31
0.0
  0
LINE
  5
132
330
12C
100
AcDbEntity
  8
DV2_Default
  6
Continuous
 62
     7
 48
25.4
100
AcDbLine
 10
215.0856397388
 20
250.7035527202
 30
0.0
 11
215.0856397388
 21
243.7035527202
 31
0.0
  0
LINE
  5
133
330
12C
100
AcDbEntity
  8
DV2_Default
  6
Continuous
 62
     7
 48
25.4
100
AcDbLine
 10
215.0856397388
 20
250.7035527202
 30
0.0
 11
214.0856397388
 21
251.7035527202
 31
0.0
  0
LINE
  5
134
330
12C
100
AcDbEntity
  8
DV2_Default
  6
Continuous
 62
     7
 48
25.4
100
AcDbLine
 10
214.0856397388
 20
251.7035527202
 30
0.0
 11
214.0856397388
 21
243.7035527202
 31
0.0
  0
LINE
  5
135
330
12C
100
AcDbEntity
  8
DV2_Default
  6
Continuous
 62
     7
 48
25.4
100
AcDbLine
 10
136.0856402535
 20
238.7035527202
 30
0.0
 11
136.0856402535
 21
227.1035527202
 31
0.0
  0
LINE
  5
136
330
12C
100
AcDbEntity
  8
DV2_Default
  6
Continuous
 62
     7
 48
25.4
100
AcDbLine
 10
146.2803176781
 20
248.7035527202
 30
0.0
 11
146.2803176781
 21
243.7035527202
 31
0.0
  0
LINE
  5
137
330
12C
100
AcDbEntity
  8
DV2_Default
  6
Continuous
 62
     7
 48
25.4
100
AcDbLine
 10
217.0856397388
 20
235.2035527202
 30
0.0
 11
205.0856397388
 21
235.2035527202
 31
0.0
  0
LINE
  5
138
330
12C
100
AcDbEntity
  8
DV2_Default
  6
Continuous
 62
     7
 48
25.4
100
AcDbLine
 10
205.0856397388
 20
235.2035527202
 30
0.0
 11
205.0856397388
 21
243.7035527202
 31
0.0
  0
LINE
  5
139
330
12C
100
AcDbEntity
  8
DV2_Default
  6
Continuous
 62
     7
 48
25.4
100
AcDbLine
 10
205.0856397388
 20
235.7035527202
 30
0.0
 11
214.0856397388
 21
235.7035527202
 31
0.0
  0
LINE
  5
13A
330
12C
100
AcDbEntity
  8
DV2_Default
  6
Continuous
 62
     7
 48
25.4
100
AcDbLine
 10
215.0856397388
 20
236.7035527202
 30
0.0
 11
215.0856397388
 21
243.7035527202
 31
0.0
  0
LINE
  5
13B
330
12C
100
AcDbEntity
  8
DV2_Default
  6
Continuous
 62
     7
 48
25.4
100
AcDbLine
 10
215.0856397388
 20
236.7035527202
 30
0.0
 11
214.0856397388
 21
235.7035527202
 31
0.0
  0
LINE
  5
13C
330
12C
100
AcDbEntity
  8
DV2_Default
  6
Continuous
 62
     7
 48
25.4
100
AcDbLine
 10
214.0856397388
 20
235.7035527202
 30
0.0
 11
214.0856397388
 21
243.7035527202
 31
0.0
  0
LINE
  5
13D
330
12C
100
AcDbEntity
  8
DV2_Default
  6
Continuous
 62
     7
 48
25.4
100
AcDbLine
 10
146.2803176781
 20
238.7035527202
 30
0.0
 11
146.2803176781
 21
243.7035527202
 31
0.0
  0
LINE
  5
13E
330
12C
100
AcDbEntity
  8
DV2_Default
  6
Continuous
 62
     7
 48
25.4
100
AcDbLine
 10
120.0856402535
 20
239.5035527202
 30
0.0
 11
146.2803176781
 21
239.5035527202
 31
0.0
  0
LINE
  5
13F
330
12C
100
AcDbEntity
  8
DV2_Default
  6
Continuous
 62
     7
 48
25.4
100
AcDbLine
 10
205.0856397388
 20
237.7035527202
 30
0.0
 11
142.0856397388
 21
237.7035527202
 31
0.0
  0
LINE
  5
140
330
12C
100
AcDbEntity
  8
DV2_Default
  6
Continuous
 62
     7
 48
25.4
100
AcDbLine
 10
218.0856397388
 20
268.9116686184
 30
0.0
 11
214.0856397388
 21
268.9116686184
 31
0.0
  0
LINE
  5
141
330
12C
100
AcDbEntity
  8
DV2_Default
  6
Continuous
 62
     7
 48
25.4
100
AcDbLine
 10
214.0856397388
 20
268.9116686184
 30
0.0
 11
214.0856397388
 21
258.9116686184
 31
0.0
  0
LINE
  5
142
330
12C
100
AcDbEntity
  8
DV2_Default
  6
Continuous
 62
     7
 48
25.4
100
AcDbLine
 10
214.0856397388
 20
258.9116686184
 30
0.0
 11
218.0856397388
 21
258.9116686184
 31
0.0
  0
LINE
  5
143
330
12C
100
AcDbEntity
  8
DV2_Default
  6
CENTER2
 62
     7
 48
25.4
100
AcDbLine
 10
218.7666526366
 20
263.9116686184
 30
0.0
 11
201.2952962958
 21
263.9116686184
 31
0.0
  0
ARC
  5
144
330
12C
100
AcDbEntity
  8
DV2_Default
  6
Continuous
 62
     7
 48
25.4
100
AcDbCircle
 10
213.7980841421
 20
264.599538936
 30
0.0
 40
4.19989077427288
100
AcDbArc
 50
43.8637840549
 51
86.0740484747
  0
LINE
  5
145
330
12C
100
AcDbEntity
  8
DV2_Default
  6
Continuous
 62
     7
 48
25.4
100
AcDbLine
 10
214.0856397388
 20
265.9055553908
 30
0.0
 11
204.7291652118
 21
265.9055553908
 31
0.0
  0
LINE
  5
146
330
12C
100
AcDbEntity
  8
DV2_Default
  6
Continuous
 62
     7
 48
25.4
100
AcDbLine
 10
220.0185705674
 20
378.5945949651
 30
0.0
 11
247.0856397388
 21
378.5945949651
 31
0.0
  0
LINE
  5
147
330
12C
100
AcDbEntity
  8
DV2_Default
  6
Continuous
 62
     7
 48
25.4
100
AcDbLine
 10
247.0856397388
 20
378.5945949651
 30
0.0
 11
247.0856397388
 21
312.5945949651
 31
0.0
  0
LINE
  5
148
330
12C
100
AcDbEntity
  8
DV2_Default
  6
Continuous
 62
     7
 48
25.4
100
AcDbLine
 10
219.0856397388
 20
377.6616641365
 30
0.0
 11
220.0185705674
 21
378.5945949651
 31
0.0
  0
LINE
  5
149
330
12C
100
AcDbEntity
  8
DV2_Default
  6
Continuous
 62
     7
 48
25.4
100
AcDbLine
 10
222.0856397388
 20
372.0945949651
 30
0.0
 11
231.0856397388
 21
372.0945949651
 31
0.0
  0
LINE
  5
14A
330
12C
100
AcDbEntity
  8
DV2_Default
  6
Continuous
 62
     7
 48
25.4
100
AcDbLine
 10
247.0856397388
 20
375.0945949651
 30
0.0
 11
231.0856397388
 21
375.0945949651
 31
0.0
  0
LINE
  5
14B
330
12C
100
AcDbEntity
  8
DV2_Default
  6
Continuous
 62
     7
 48
25.4
100
AcDbLine
 10
231.0856397388
 20
375.0945949651
 30
0.0
 11
231.0856397388
 21
358.0945949651
 31
0.0
  0
LINE
  5
14C
330
12C
100
AcDbEntity
  8
DV2_Default
  6
Continuous
 62
     7
 48
25.4
100
AcDbLine
 10
231.0856397388
 20
358.0945949651
 30
0.0
 11
247.0856397388
 21
358.0945949651
 31
0.0
  0
LINE
  5
14D
330
12C
100
AcDbEntity
  8
DV2_Default
  6
Continuous
 62
     7
 48
25.4
100
AcDbLine
 10
222.0856397388
 20
361.0945949651
 30
0.0
 11
231.0856397388
 21
361.0945949651
 31
0.0
  0
LINE
  5
14E
330
12C
100
AcDbEntity
  8
DV2_Default
  6
Continuous
 62
     7
 48
25.4
100
AcDbLine
 10
231.0856397388
 20
361.7090951863
 30
0.0
 11
222.0856397388
 21
361.7090951863
 31
0.0
  0
LINE
  5
14F
330
12C
100
AcDbEntity
  8
DV2_Default
  6
Continuous
 62
     7
 48
25.4
100
AcDbLine
 10
222.0856397388
 20
371.4800947439
 30
0.0
 11
231.0856397388
 21
371.4800947439
 31
0.0
  0
LINE
  5
150
330
12C
100
AcDbEntity
  8
DV2_Default
  6
Continuous
 62
     7
 48
25.4
100
AcDbLine
 10
222.5856397388
 20
372.5945949651
 30
0.0
 11
231.0856397388
 21
372.5945949651
 31
0.0
  0
LINE
  5
151
330
12C
100
AcDbEntity
  8
DV2_Default
  6
Continuous
 62
     7
 48
25.4
100
AcDbLine
 10
231.0856397388
 20
360.5945949651
 30
0.0
 11
222.5856397388
 21
360.5945949651
 31
0.0
  0
LINE
  5
152
330
12C
100
AcDbEntity
  8
DV2_Default
  6
Continuous
 62
     7
 48
25.4
100
AcDbLine
 10
231.0856397388
 20
359.0945949651
 30
0.0
 11
240.0856397388
 21
359.0945949651
 31
0.0
  0
LINE
  5
153
330
12C
100
AcDbEntity
  8
DV2_Default
  6
Continuous
 62
     7
 48
25.4
100
AcDbLine
 10
241.0856397388
 20
360.0945949651
 30
0.0
 11
241.0856397388
 21
373.0945949651
 31
0.0
  0
LINE
  5
154
330
12C
100
AcDbEntity
  8
DV2_Default
  6
Continuous
 62
     7
 48
25.4
100
AcDbLine
 10
240.0856397388
 20
374.0945949651
 30
0.0
 11
231.0856397388
 21
374.0945949651
 31
0.0
  0
LINE
  5
155
330
12C
100
AcDbEntity
  8
DV2_Default
  6
Continuous
 62
     7
 48
25.4
100
AcDbLine
 10
240.0856397388
 20
359.0945949651
 30
0.0
 11
241.0856397388
 21
360.0945949651
 31
0.0
  0
LINE
  5
156
330
12C
100
AcDbEntity
  8
DV2_Default
  6
Continuous
 62
     7
 48
25.4
100
AcDbLine
 10
240.0856397388
 20
374.0945949651
 30
0.0
 11
241.0856397388
 21
373.0945949651
 31
0.0
  0
LINE
  5
157
330
12C
100
AcDbEntity
  8
DV2_Default
  6
Continuous
 62
     7
 48
25.4
100
AcDbLine
 10
240.0856397388
 20
374.0945949651
 30
0.0
 11
240.0856397388
 21
359.0945949651
 31
0.0
  0
LINE
  5
158
330
12C
100
AcDbEntity
  8
DV2_Default
  6
Continuous
 62
     7
 48
25.4
100
AcDbLine
 10
222.0856397388
 20
360.5945949651
 30
0.0
 11
222.0856397388
 21
356.5677771084
 31
0.0
  0
LINE
  5
159
330
12C
100
AcDbEntity
  8
DV2_Default
  6
Continuous
 62
     7
 48
25.4
100
AcDbLine
 10
222.0856397388
 20
341.0409592517
 30
0.0
 11
231.0856397388
 21
341.0409592517
 31
0.0
  0
LINE
  5
15A
330
12C
100
AcDbEntity
  8
DV2_Default
  6
Continuous
 62
     7
 48
25.4
100
AcDbLine
 10
247.0856397388
 20
338.0409592517
 30
0.0
 11
231.0856397388
 21
338.0409592517
 31
0.0
  0
LINE
  5
15B
330
12C
100
AcDbEntity
  8
DV2_Default
  6
Continuous
 62
     7
 48
25.4
100
AcDbLine
 10
231.0856397388
 20
338.0409592517
 30
0.0
 11
231.0856397388
 21
355.0409592517
 31
0.0
  0
LINE
  5
15C
330
12C
100
AcDbEntity
  8
DV2_Default
  6
Continuous
 62
     7
 48
25.4
100
AcDbLine
 10
231.0856397388
 20
355.0409592517
 30
0.0
 11
247.0856397388
 21
355.0409592517
 31
0.0
  0
LINE
  5
15D
330
12C
100
AcDbEntity
  8
DV2_Default
  6
Continuous
 62
     7
 48
25.4
100
AcDbLine
 10
222.0856397388
 20
352.0409592517
 30
0.0
 11
231.0856397388
 21
352.0409592517
 31
0.0
  0
LINE
  5
15E
330
12C
100
AcDbEntity
  8
DV2_Default
  6
Continuous
 62
     7
 48
25.4
100
AcDbLine
 10
231.0856397388
 20
351.4264590305
 30
0.0
 11
222.0856397388
 21
351.4264590305
 31
0.0
  0
LINE
  5
15F
330
12C
100
AcDbEntity
  8
DV2_Default
  6
Continuous
 62
     7
 48
25.4
100
AcDbLine
 10
222.0856397388
 20
341.6554594729
 30
0.0
 11
231.0856397388
 21
341.6554594729
 31
0.0
  0
LINE
  5
160
330
12C
100
AcDbEntity
  8
DV2_Default
  6
Continuous
 62
     7
 48
25.4
100
AcDbLine
 10
222.5856397388
 20
340.5409592517
 30
0.0
 11
231.0856397388
 21
340.5409592517
 31
0.0
  0
LINE
  5
161
330
12C
100
AcDbEntity
  8
DV2_Default
  6
Continuous
 62
     7
 48
25.4
100
AcDbLine
 10
231.0856397388
 20
352.5409592517
 30
0.0
 11
222.5856397388
 21
352.5409592517
 31
0.0
  0
LINE
  5
162
330
12C
100
AcDbEntity
  8
DV2_Default
  6
Continuous
 62
     7
 48
25.4
100
AcDbLine
 10
231.0856397388
 20
354.0409592517
 30
0.0
 11
240.0856397388
 21
354.0409592517
 31
0.0
  0
LINE
  5
163
330
12C
100
AcDbEntity
  8
DV2_Default
  6
Continuous
 62
     7
 48
25.4
100
AcDbLine
 10
241.0856397388
 20
353.0409592517
 30
0.0
 11
241.0856397388
 21
340.0409592517
 31
0.0
  0
LINE
  5
164
330
12C
100
AcDbEntity
  8
DV2_Default
  6
Continuous
 62
     7
 48
25.4
100
AcDbLine
 10
240.0856397388
 20
339.0409592517
 30
0.0
 11
231.0856397388
 21
339.0409592517
 31
0.0
  0
LINE
  5
165
330
12C
100
AcDbEntity
  8
DV2_Default
  6
Continuous
 62
     7
 48
25.4
100
AcDbLine
 10
240.0856397388
 20
354.0409592517
 30
0.0
 11
241.0856397388
 21
353.0409592517
 31
0.0
  0
LINE
  5
166
330
12C
100
AcDbEntity
  8
DV2_Default
  6
Continuous
 62
     7
 48
25.4
100
AcDbLine
 10
240.0856397388
 20
339.0409592517
 30
0.0
 11
241.0856397388
 21
340.0409592517
 31
0.0
  0
LINE
  5
167
330
12C
100
AcDbEntity
  8
DV2_Default
  6
Continuous
 62
     7
 48
25.4
100
AcDbLine
 10
240.0856397388
 20
339.0409592517
 30
0.0
 11
240.0856397388
 21
354.0409592517
 31
0.0
  0
LINE
  5
168
330
12C
100
AcDbEntity
  8
DV2_Default
  6
Continuous
 62
     7
 48
25.4
100
AcDbLine
 10
222.0856397388
 20
352.5409592517
 30
0.0
 11
222.0856397388
 21
356.5677771084
 31
0.0
  0
LINE
  5
169
330
12C
100
AcDbEntity
  8
DV2_Default
  6
Continuous
 62
     7
 48
25.4
100
AcDbLine
 10
220.881690963
 20
324.3664529029
 30
0.0
 11
220.881690963
 21
312.5945949651
 31
0.0
  0
LINE
  5
16A
330
12C
100
AcDbEntity
  8
DV2_Default
  6
Continuous
 62
     7
 48
25.4
100
AcDbLine
 10
220.881690963
 20
312.5945949651
 30
0.0
 11
247.0856397388
 21
312.5945949651
 31
0.0
  0
LINE
  5
16B
330
12C
100
AcDbEntity
  8
DV2_Default
  6
Continuous
 62
     7
 48
25.4
100
AcDbLine
 10
220.0185705674
 20
378.5945949651
 30
0.0
 11
220.0185705674
 21
326.1527063833
 31
0.0
  0
LINE
  5
16C
330
12C
100
AcDbEntity
  8
DV2_Default
  6
HIDDEN2
 62
     7
 48
25.4
100
AcDbLine
 10
218.086205393
 20
377.6616641365
 30
0.0
 11
218.086205393
 21
335.2983065009
 31
0.0
  0
LINE
  5
16D
330
12C
100
AcDbEntity
  8
DV2_Default
  6
Continuous
 62
     7
 48
25.4
100
AcDbLine
 10
219.0856397388
 20
377.6616641365
 30
0.0
 11
219.0856397388
 21
326.1527063833
 31
0.0
  0
LINE
  5
16E
330
12C
100
AcDbEntity
  8
DV2_Default
  6
Continuous
 62
     7
 48
25.4
100
AcDbLine
 10
219.0856297596
 20
326.1527293259
 30
0.0
 11
220.8817024053
 21
324.3664362644
 31
0.0
  0
LINE
  5
16F
330
12C
100
AcDbEntity
  8
DV2_Default
  6
Continuous
 62
     7
 48
25.4
100
AcDbLine
 10
222.0856397388
 20
338.0409581929
 30
0.0
 11
220.0185705674
 21
338.0409581929
 31
0.0
  0
LINE
  5
170
330
12C
100
AcDbEntity
  8
DV2_Default
  6
Continuous
 62
     7
 48
25.4
100
AcDbLine
 10
220.0185705674
 20
375.0945949651
 30
0.0
 11
222.0856397388
 21
375.0945949651
 31
0.0
  0
LINE
  5
171
330
12C
100
AcDbEntity
  8
DV2_Default
  6
Continuous
 62
     7
 48
25.4
100
AcDbLine
 10
222.0856397388
 20
375.0945949651
 30
0.0
 11
222.0856397388
 21
338.0409581929
 31
0.0
  0
LINE
  5
172
330
12C
100
AcDbEntity
  8
DV2_Default
  6
Continuous
 62
     7
 48
25.4
100
AcDbLine
 10
222.5856397388
 20
372.5945949651
 30
0.0
 11
222.5856397388
 21
378.5945949651
 31
0.0
  0
LINE
  5
173
330
12C
100
AcDbEntity
  8
DV2_Default
  6
Continuous
 62
     7
 48
25.4
100
AcDbLine
 10
222.5856397388
 20
360.5945949651
 30
0.0
 11
222.5856397388
 21
352.5409592517
 31
0.0
  0
LINE
  5
174
330
12C
100
AcDbEntity
  8
DV2_Default
  6
Continuous
 62
     7
 48
25.4
100
AcDbLine
 10
222.5856397388
 20
340.5409592517
 30
0.0
 11
222.5856397388
 21
312.5945949651
 31
0.0
  0
LINE
  5
175
330
12C
100
AcDbEntity
  8
DV2_Default
  6
Continuous
 62
     7
 48
25.4
100
AcDbLine
 10
135.0856402535
 20
366.1035527202
 30
0.0
 11
122.0856402535
 21
366.1035527202
 31
0.0
  0
LINE
  5
176
330
12C
100
AcDbEntity
  8
DV2_Default
  6
Continuous
 62
     7
 48
25.4
100
AcDbLine
 10
122.0856402535
 20
226.1035527202
 30
0.0
 11
135.0856402535
 21
226.1035527202
 31
0.0
  0
LINE
  5
177
330
12C
100
AcDbEntity
  8
DV2_Default
  6
Continuous
 62
     7
 48
25.4
100
AcDbLine
 10
121.0856402535
 20
238.7035527202
 30
0.0
 11
121.0856402535
 21
227.1035527202
 31
0.0
  0
LINE
  5
178
330
12C
100
AcDbEntity
  8
DV2_Default
  6
Continuous
 62
     7
 48
25.4
100
AcDbLine
 10
131.0856402535
 20
377.6035527202
 30
0.0
 11
131.0856402535
 21
366.1035527202
 31
0.0
  0
LINE
  5
179
330
12C
100
AcDbEntity
  8
DV2_Default
  6
Continuous
 62
     7
 48
25.4
100
AcDbLine
 10
105.0856402535
 20
238.7035527202
 30
0.0
 11
105.0856402535
 21
248.7035527202
 31
0.0
  0
LINE
  5
17A
330
12C
100
AcDbEntity
  8
DV2_Default
  6
Continuous
 62
     7
 48
25.4
100
AcDbLine
 10
111.0856397388
 20
238.7035527202
 30
0.0
 11
205.0856397388
 21
238.7035527202
 31
0.0
  0
LINE
  5
17B
330
12C
100
AcDbEntity
  8
DV2_Default
  6
Continuous
 62
     7
 48
25.4
100
AcDbLine
 10
111.0856397388
 20
248.7035527202
 30
0.0
 11
205.0856397388
 21
248.7035527202
 31
0.0
  0
LINE
  5
17C
330
12C
100
AcDbEntity
  8
DV2_Default
  6
Continuous
 62
     7
 48
25.4
100
AcDbLine
 10
105.0856402535
 20
247.9035527202
 30
0.0
 11
146.2803176781
 21
247.9035527202
 31
0.0
  0
LINE
  5
17D
330
12C
100
AcDbEntity
  8
DV2_Default
  6
Continuous
 62
     7
 48
25.4
100
AcDbLine
 10
105.0856402535
 20
239.5035527202
 30
0.0
 11
146.2803176781
 21
239.5035527202
 31
0.0
  0
LINE
  5
17E
330
12C
100
AcDbEntity
  8
DV2_Default
  6
Continuous
 62
     7
 48
25.4
100
AcDbLine
 10
136.0856402535
 20
352.0812945719
 30
0.0
 11
136.0856402535
 21
248.7035527202
 31
0.0
  0
LINE
  5
17F
330
12C
100
AcDbEntity
  8
DV2_Default
  6
Continuous
 62
     7
 48
25.4
100
AcDbLine
 10
121.0856402535
 20
360.6616641384
 30
0.0
 11
121.0856402535
 21
349.6616641384
 31
0.0
  0
LINE
  5
180
330
12C
100
AcDbEntity
  8
DV2_Default
  6
CENTER2
 62
     7
 48
25.4
100
AcDbLine
 10
117.5856402535
 20
355.1616641384
 30
0.0
 11
153.6050156803
 21
355.1616641384
 31
0.0
  0
LINE
  5
181
330
12C
100
AcDbEntity
  8
DV2_Default
  6
Continuous
 62
     7
 48
25.4
100
AcDbLine
 10
127.0856402535
 20
361.2196160714
 30
0.0
 11
121.0856402535
 21
361.2196160714
 31
0.0
  0
LINE
  5
182
330
12C
100
AcDbEntity
  8
DV2_Default
  6
Continuous
 62
     7
 48
25.4
100
AcDbLine
 10
127.0856402535
 20
358.0812945719
 30
0.0
 11
146.0856402535
 21
358.0812945719
 31
0.0
  0
LINE
  5
183
330
12C
100
AcDbEntity
  8
DV2_Default
  6
Continuous
 62
     7
 48
25.4
100
AcDbLine
 10
146.0856402535
 20
358.0812945719
 30
0.0
 11
146.0856402535
 21
352.0812945719
 31
0.0
  0
LINE
  5
184
330
12C
100
AcDbEntity
  8
DV2_Default
  6
Continuous
 62
     7
 48
25.4
100
AcDbLine
 10
146.0856402535
 20
352.0812945719
 30
0.0
 11
127.0856402535
 21
352.0812945719
 31
0.0
  0
LINE
  5
185
330
12C
100
AcDbEntity
  8
DV2_Default
  6
Continuous
 62
     7
 48
25.4
100
AcDbLine
 10
127.0856402535
 20
357.6453653328
 30
0.0
 11
146.0856402535
 21
357.6453653328
 31
0.0
  0
LINE
  5
186
330
12C
100
AcDbEntity
  8
DV2_Default
  6
Continuous
 62
     7
 48
25.4
100
AcDbLine
 10
127.0856402535
 20
352.4514784067
 30
0.0
 11
146.0856402535
 21
352.4514784067
 31
0.0
  0
LINE
  5
187
330
12C
100
AcDbEntity
  8
DV2_Default
  6
Continuous
 62
     7
 48
25.4
100
AcDbLine
 10
127.0856402535
 20
351.5967881531
 30
0.0
 11
136.0856402535
 21
351.5967881531
 31
0.0
  0
LINE
  5
188
330
12C
100
AcDbEntity
  8
DV2_Default
  6
Continuous
 62
     7
 48
25.4
100
AcDbLine
 10
127.0857734183
 20
358.4966313467
 30
0.0
 11
136.0857734183
 21
358.4966313467
 31
0.0
  0
LINE
  5
189
330
12C
100
AcDbEntity
  8
DV2_Default
  6
Continuous
 62
     7
 48
25.4
100
AcDbLine
 10
127.0856402535
 20
360.5812945719
 30
0.0
 11
121.8430994656
 21
360.5812945719
 31
0.0
  0
LINE
  5
18A
330
12C
100
AcDbEntity
  8
DV2_Default
  6
Continuous
 62
     7
 48
25.4
100
AcDbLine
 10
121.8430994656
 20
349.5812945719
 30
0.0
 11
127.0856402535
 21
349.5812945719
 31
0.0
  0
LINE
  5
18B
330
12C
100
AcDbEntity
  8
DV2_Default
  6
Continuous
 62
     7
 48
25.4
100
AcDbLine
 10
121.554424331
 20
360.0812945719
 30
0.0
 11
121.554424331
 21
350.0812945719
 31
0.0
  0
LINE
  5
18C
330
12C
100
AcDbEntity
  8
DV2_Default
  6
Continuous
 62
     7
 48
25.4
100
AcDbLine
 10
121.8430994656
 20
360.5812945719
 30
0.0
 11
121.554424331
 21
360.0812945719
 31
0.0
  0
LINE
  5
18D
330
12C
100
AcDbEntity
  8
DV2_Default
  6
Continuous
 62
     7
 48
25.4
100
AcDbLine
 10
121.8430994656
 20
349.5812945719
 30
0.0
 11
121.554424331
 21
350.0812945719
 31
0.0
  0
LINE
  5
18E
330
12C
100
AcDbEntity
  8
DV2_Default
  6
Continuous
 62
     7
 48
25.4
100
AcDbLine
 10
121.8430994656
 20
360.5812945719
 30
0.0
 11
121.8430994656
 21
349.5812945719
 31
0.0
  0
LINE
  5
18F
330
12C
100
AcDbEntity
  8
DV2_Default
  6
Continuous
 62
     7
 48
25.4
100
AcDbLine
 10
136.0856402535
 20
365.1035527202
 30
0.0
 11
136.0856402535
 21
358.0812945719
 31
0.0
  0
LINE
  5
190
330
12C
100
AcDbEntity
  8
DV2_Default
  6
Continuous
 62
     7
 48
25.4
100
AcDbLine
 10
127.0856402535
 20
361.2196160714
 30
0.0
 11
127.0856402535
 21
348.9790564783
 31
0.0
  0
LINE
  5
191
330
12C
100
AcDbEntity
  8
DV2_Default
  6
Continuous
 62
     7
 48
25.4
100
AcDbLine
 10
127.0856402535
 20
348.9790564783
 30
0.0
 11
121.0856402535
 21
348.9790564783
 31
0.0
  0
LINE
  5
192
330
12C
100
AcDbEntity
  8
DV2_Default
  6
CENTER2
 62
     7
 48
25.4
100
AcDbLine
 10
101.5856402535
 20
243.7035527202
 30
0.0
 11
226.9860498726
 21
243.7035527202
 31
0.0
  0
LINE
  5
193
330
12C
100
AcDbEntity
  8
DV2_Default
  6
Continuous
 62
     7
 48
25.4
100
AcDbLine
 10
131.0856402535
 20
377.6035527202
 30
0.0
 11
133.0856397388
 21
379.6049875596
 31
0.0
  0
LINE
  5
194
330
12C
100
AcDbEntity
  8
DV2_Default
  6
Continuous
 62
     7
 48
25.4
100
AcDbLine
 10
218.086205393
 20
377.6616641365
 30
0.0
 11
216.1414872909
 21
379.6049875596
 31
0.0
  0
LINE
  5
195
330
12C
100
AcDbEntity
  8
DV2_Default
  6
Continuous
 62
     7
 48
25.4
100
AcDbLine
 10
220.0185705674
 20
378.5945949651
 30
0.0
 11
220.0185705674
 21
379.6049875596
 31
0.0
  0
LINE
  5
196
330
12C
100
AcDbEntity
  8
DV2_Default
  6
Continuous
 62
     7
 48
25.4
100
AcDbLine
 10
220.0185705674
 20
379.6049875596
 30
0.0
 11
220.0185705674
 21
379.6049875596
 31
0.0
  0
LINE
  5
197
330
12C
100
AcDbEntity
  8
DV2_Default
  6
Continuous
 62
     7
 48
25.4
100
AcDbLine
 10
218.2685705674
 20
381.3549875596
 30
0.0
 11
193.7281706622
 21
381.3549875596
 31
0.0
  0
LINE
  5
198
330
12C
100
AcDbEntity
  8
DV2_Default
  6
Continuous
 62
     7
 48
25.4
100
AcDbLine
 10
193.7281706622
 20
381.3549875596
 30
0.0
 11
193.7281706622
 21
379.6049875596
 31
0.0
  0
LINE
  5
199
330
12C
100
AcDbEntity
  8
DV2_Default
  6
Continuous
 62
     7
 48
25.4
100
AcDbLine
 10
220.0185705674
 20
379.6049875596
 30
0.0
 11
218.2685705674
 21
381.3549875596
 31
0.0
  0
LINE
  5
19A
330
12C
100
AcDbEntity
  8
DV2_Default
  6
CENTER2
 62
     7
 48
25.4
100
AcDbLine
 10
110.682691602
 20
297.1049875596
 30
0.0
 11
258.8058620752
 21
297.1049875596
 31
0.0
  0
LINE
  5
19B
330
12C
100
AcDbEntity
  8
DV2_Default
  6
Continuous
 62
     7
 48
25.4
100
AcDbLine
 10
205.0856397388
 20
249.7035527202
 30
0.0
 11
142.0856397388
 21
249.7035527202
 31
0.0
  0
LINE
  5
19C
330
12C
100
AcDbEntity
  8
DV2_Default
  6
Continuous
 62
     7
 48
25.4
100
AcDbLine
 10
121.0856402535
 20
365.1035527202
 30
0.0
 11
122.0856402535
 21
366.1035527202
 31
0.0
  0
LINE
  5
19D
330
12C
100
AcDbEntity
  8
DV2_Default
  6
Continuous
 62
     7
 48
25.4
100
AcDbLine
 10
136.0856402535
 20
365.1035527202
 30
0.0
 11
135.0856402535
 21
366.1035527202
 31
0.0
  0
LINE
  5
19E
330
12C
100
AcDbEntity
  8
DV2_Default
  6
Continuous
 62
     7
 48
25.4
100
AcDbLine
 10
122.0856402535
 20
226.1035527202
 30
0.0
 11
121.0856402535
 21
227.1035527202
 31
0.0
  0
LINE
  5
19F
330
12C
100
AcDbEntity
  8
DV2_Default
  6
Continuous
 62
     7
 48
25.4
100
AcDbLine
 10
135.0856402535
 20
226.1035527202
 30
0.0
 11
136.0856402535
 21
227.1035527202
 31
0.0
  0
LINE
  5
1A0
330
12C
100
AcDbEntity
  8
DV2_Default
  6
Continuous
 62
     7
 48
25.4
100
AcDbLine
 10
121.0856402535
 20
365.1035527202
 30
0.0
 11
121.0856402535
 21
248.7035527202
 31
0.0
  0
LINE
  5
1A1
330
12C
100
AcDbEntity
  8
DV2_Default
  6
Continuous
 62
     7
 48
25.4
100
AcDbLine
 10
214.0856397388
 20
266.4116686184
 30
0.0
 11
204.0856397388
 21
266.4116686184
 31
0.0
  0
LINE
  5
1A2
330
12C
100
AcDbEntity
  8
DV2_Default
  6
Continuous
 62
     7
 48
25.4
100
AcDbLine
 10
204.7291652118
 20
265.9055553908
 30
0.0
 11
204.0856397388
 21
265.9055553908
 31
0.0
  0
LINE
  5
1A3
330
12C
100
AcDbEntity
  8
DV2_Default
  6
Continuous
 62
     7
 48
25.4
100
AcDbLine
 10
214.0856397388
 20
261.9184505196
 30
0.0
 11
204.7291652118
 21
261.9184505196
 31
0.0
  0
LINE
  5
1A4
330
12C
100
AcDbEntity
  8
DV2_Default
  6
Continuous
 62
     7
 48
25.4
100
AcDbLine
 10
214.0856397388
 20
261.412337292
 30
0.0
 11
204.0856397388
 21
261.412337292
 31
0.0
  0
LINE
  5
1A5
330
12C
100
AcDbEntity
  8
DV2_Default
  6
Continuous
 62
     7
 48
25.4
100
AcDbLine
 10
204.7291652118
 20
261.9184505196
 30
0.0
 11
204.0856397388
 21
261.9184505196
 31
0.0
  0
LINE
  5
1A6
330
12C
100
AcDbEntity
  8
DV2_Default
  6
Continuous
 62
     7
 48
25.4
100
AcDbLine
 10
204.0856397388
 20
266.4116686184
 30
0.0
 11
204.0856397388
 21
261.412337292
 31
0.0
  0
LINE
  5
1A7
330
12C
100
AcDbEntity
  8
DV2_Default
  6
Continuous
 62
     7
 48
25.4
100
AcDbLine
 10
214.0856397388
 20
266.9116686184
 30
0.0
 11
213.0856397388
 21
266.9116686184
 31
0.0
  0
LINE
  5
1A8
330
12C
100
AcDbEntity
  8
DV2_Default
  6
Continuous
 62
     7
 48
25.4
100
AcDbLine
 10
214.0856397388
 20
260.912337292
 30
0.0
 11
213.0856397388
 21
260.912337292
 31
0.0
  0
LINE
  5
1A9
330
12C
100
AcDbEntity
  8
DV2_Default
  6
Continuous
 62
     7
 48
25.4
100
AcDbLine
 10
217.3841817598
 20
266.123944973
 30
0.0
 11
217.3841817598
 21
263.9120029552
 31
0.0
  0
ARC
  5
1AA
330
12C
100
AcDbEntity
  8
DV2_Default
  6
Continuous
 62
     7
 48
25.4
100
AcDbCircle
 10
213.7980841421
 20
263.2244669744
 30
0.0
 40
4.19989077427288
100
AcDbArc
 50
273.9259515253
 51
316.1362159451
  0
LINE
  5
1AB
330
12C
100
AcDbEntity
  8
DV2_Default
  6
Continuous
 62
     7
 48
25.4
100
AcDbLine
 10
217.3841817598
 20
261.7000609373
 30
0.0
 11
217.3841817598
 21
263.9120029552
 31
0.0
  0
ARC
  5
1AC
330
12C
100
AcDbEntity
  8
DV2_Default
  6
Continuous
 62
     7
 48
25.4
100
AcDbCircle
 10
215.3841817598
 20
266.123944973
 30
0.0
 40
2.000000000000002
100
AcDbArc
 50
0.0
 51
43.8637840549
  0
ARC
  5
1AD
330
12C
100
AcDbEntity
  8
DV2_Default
  6
Continuous
 62
     7
 48
25.4
100
AcDbCircle
 10
215.3841817598
 20
261.7000609373
 30
0.0
 40
2.0
100
AcDbArc
 50
316.1362159451
 51
360.0
  0
LINE
  5
1AE
330
12C
100
AcDbEntity
  8
DV2_Default
  6
Continuous
 62
     7
 48
25.4
100
AcDbLine
 10
146.0856402535
 20
297.1049875596
 30
0.0
 11
146.0856402535
 21
275.6049875596
 31
0.0
  0
LINE
  5
1AF
330
12C
100
AcDbEntity
  8
DV2_Default
  6
Continuous
 62
     7
 48
25.4
100
AcDbLine
 10
186.7821810512
 20
274.6049875596
 30
0.0
 11
186.7821810512
 21
272.6049875596
 31
0.0
  0
LINE
  5
1B0
330
12C
100
AcDbEntity
  8
DV2_Default
  6
Continuous
 62
     7
 48
25.4
100
AcDbLine
 10
186.7821810512
 20
272.6049875596
 30
0.0
 11
189.7821810512
 21
272.6049875596
 31
0.0
  0
LINE
  5
1B1
330
12C
100
AcDbEntity
  8
DV2_Default
  6
Continuous
 62
     7
 48
25.4
100
AcDbLine
 10
189.7821810512
 20
281.6049875596
 30
0.0
 11
189.7821810512
 21
271.1049875596
 31
0.0
  0
LINE
  5
1B2
330
12C
100
AcDbEntity
  8
DV2_Default
  6
Continuous
 62
     7
 48
25.4
100
AcDbLine
 10
193.7821810512
 20
272.1049875596
 30
0.0
 11
204.0856397388
 21
272.1049875596
 31
0.0
  0
LINE
  5
1B3
330
12C
100
AcDbEntity
  8
DV2_Default
  6
Continuous
 62
     7
 48
25.4
100
AcDbLine
 10
204.0856397388
 20
272.1049875596
 30
0.0
 11
204.0856397388
 21
281.6049875596
 31
0.0
  0
LINE
  5
1B4
330
12C
100
AcDbEntity
  8
DV2_Default
  6
Continuous
 62
     7
 48
25.4
100
AcDbLine
 10
218.0856397388
 20
257.8549875596
 30
0.0
 11
213.0856397388
 21
257.8549875596
 31
0.0
  0
LINE
  5
1B5
330
12C
100
AcDbEntity
  8
DV2_Default
  6
Continuous
 62
     7
 48
25.4
100
AcDbLine
 10
213.0856397388
 20
260.912337292
 30
0.0
 11
213.0856397388
 21
257.8549875596
 31
0.0
  0
LINE
  5
1B6
330
12C
100
AcDbEntity
  8
DV2_Default
  6
Continuous
 62
     7
 48
25.4
100
AcDbLine
 10
151.0856402535
 20
262.1049875596
 30
0.0
 11
151.0856402535
 21
274.6049875596
 31
0.0
  0
LINE
  5
1B7
330
12C
100
AcDbEntity
  8
DV2_Default
  6
Continuous
 62
     7
 48
25.4
100
AcDbLine
 10
146.0856402535
 20
297.1049875596
 30
0.0
 11
146.0856402535
 21
287.1049875596
 31
0.0
  0
LINE
  5
1B8
330
12C
100
AcDbEntity
  8
DV2_Default
  6
Continuous
 62
     7
 48
25.4
100
AcDbLine
 10
146.0856402535
 20
287.1049875596
 30
0.0
 11
166.0856402535
 21
287.1049875596
 31
0.0
  0
LINE
  5
1B9
330
12C
100
AcDbEntity
  8
DV2_Default
  6
Continuous
 62
     7
 48
25.4
100
AcDbLine
 10
170.0856402535
 20
297.1049875596
 30
0.0
 11
170.0856402535
 21
277.6049875596
 31
0.0
  0
LINE
  5
1BA
330
12C
100
AcDbEntity
  8
DV2_Default
  6
Continuous
 62
     7
 48
25.4
100
AcDbLine
 10
166.0856402535
 20
278.1049875596
 30
0.0
 11
146.0856402535
 21
278.1049875596
 31
0.0
  0
LINE
  5
1BB
330
12C
100
AcDbEntity
  8
DV2_Default
  6
Continuous
 62
     7
 48
25.4
100
AcDbLine
 10
169.5856402535
 20
277.1049875596
 30
0.0
 11
166.5856402535
 21
277.1049875596
 31
0.0
  0
LINE
  5
1BC
330
12C
100
AcDbEntity
  8
DV2_Default
  6
Continuous
 62
     7
 48
25.4
100
AcDbLine
 10
166.0856402535
 20
277.6049875596
 30
0.0
 11
166.0856402535
 21
297.1049875596
 31
0.0
  0
LINE
  5
1BD
330
12C
100
AcDbEntity
  8
DV2_Default
  6
Continuous
 62
     7
 48
25.4
100
AcDbLine
 10
166.0856402535
 20
279.6049875596
 30
0.0
 11
146.0856402535
 21
279.6049875596
 31
0.0
  0
ARC
  5
1BE
330
12C
100
AcDbEntity
  8
DV2_Default
  6
Continuous
 62
     7
 48
25.4
100
AcDbCircle
 10
166.5856402535
 20
277.6049875596
 30
0.0
 40
0.5
100
AcDbArc
 50
180.0
 51
270.0
  0
ARC
  5
1BF
330
12C
100
AcDbEntity
  8
DV2_Default
  6
Continuous
 62
     7
 48
25.4
100
AcDbCircle
 10
169.5856402535
 20
277.6049875596
 30
0.0
 40
0.5
100
AcDbArc
 50
270.0
 51
360.0
  0
LINE
  5
1C0
330
12C
100
AcDbEntity
  8
DV2_Default
  6
Continuous
 62
     7
 48
25.4
100
AcDbLine
 10
146.0856402535
 20
275.6049875596
 30
0.0
 11
147.0856402535
 21
274.6049875596
 31
0.0
  0
LINE
  5
1C1
330
12C
100
AcDbEntity
  8
DV2_Default
  6
Continuous
 62
     7
 48
25.4
100
AcDbLine
 10
190.0366639459
 20
268.3549875596
 30
0.0
 11
213.0856397388
 21
268.3549875596
 31
0.0
  0
LINE
  5
1C2
330
12C
100
AcDbEntity
  8
DV2_Default
  6
Continuous
 62
     7
 48
25.4
100
AcDbLine
 10
193.7821810512
 20
272.1049875596
 30
0.0
 11
193.7821810512
 21
271.1049875596
 31
0.0
  0
LINE
  5
1C3
330
12C
100
AcDbEntity
  8
DV2_Default
  6
Continuous
 62
     7
 48
25.4
100
AcDbLine
 10
193.7821810512
 20
271.1049875596
 30
0.0
 11
189.7821810512
 21
271.1049875596
 31
0.0
  0
LINE
  5
1C4
330
12C
100
AcDbEntity
  8
DV2_Default
  6
Continuous
 62
     7
 48
25.4
100
AcDbLine
 10
204.0856397388
 20
272.1049875596
 30
0.0
 11
204.0856397388
 21
269.8095884327
 31
0.0
  0
LINE
  5
1C5
330
12C
100
AcDbEntity
  8
DV2_Default
  6
Continuous
 62
     7
 48
25.4
100
AcDbLine
 10
203.0856397388
 20
268.8095884327
 30
0.0
 11
186.5552586289
 21
268.8095884327
 31
0.0
  0
LINE
  5
1C6
330
12C
100
AcDbEntity
  8
DV2_Default
  6
Continuous
 62
     7
 48
25.4
100
AcDbLine
 10
186.3552586289
 20
268.6095884327
 30
0.0
 11
186.3552586289
 21
262.1049875596
 31
0.0
  0
LINE
  5
1C7
330
12C
100
AcDbEntity
  8
DV2_Default
  6
Continuous
 62
     7
 48
25.4
100
AcDbLine
 10
186.3552586289
 20
262.1049875596
 30
0.0
 11
186.6552586289
 21
262.1049875596
 31
0.0
  0
LINE
  5
1C8
330
12C
100
AcDbEntity
  8
DV2_Default
  6
Continuous
 62
     7
 48
25.4
100
AcDbLine
 10
186.8552586289
 20
262.3049875596
 30
0.0
 11
186.8552586289
 21
268.8095884327
 31
0.0
  0
ARC
  5
1C9
330
12C
100
AcDbEntity
  8
DV2_Default
  6
Continuous
 62
     7
 48
25.4
100
AcDbCircle
 10
203.0856397388
 20
269.8095884327
 30
0.0
 40
1.0
100
AcDbArc
 50
270.0
 51
360.0
  0
ARC
  5
1CA
330
12C
100
AcDbEntity
  8
DV2_Default
  6
Continuous
 62
     7
 48
25.4
100
AcDbCircle
 10
186.6552586289
 20
262.3049875596
 30
0.0
 40
0.2
100
AcDbArc
 50
270.0
 51
360.0
  0
ARC
  5
1CB
330
12C
100
AcDbEntity
  8
DV2_Default
  6
Continuous
 62
     7
 48
25.4
100
AcDbCircle
 10
186.5552586289
 20
268.6095884327
 30
0.0
 40
0.2
100
AcDbArc
 50
90.0
 51
180.0
  0
LINE
  5
1CC
330
12C
100
AcDbEntity
  8
DV2_Default
  6
Continuous
 62
     7
 48
25.4
100
AcDbLine
 10
213.0856397388
 20
266.9116686184
 30
0.0
 11
213.0856397388
 21
281.6049875596
 31
0.0
  0
LINE
  5
1CD
330
12C
100
AcDbEntity
  8
DV2_Default
  6
Continuous
 62
     7
 48
25.4
100
AcDbLine
 10
193.7821810512
 20
272.1049875596
 30
0.0
 11
189.7821810512
 21
272.1049875596
 31
0.0
  0
LINE
  5
1CE
330
12C
100
AcDbEntity
  8
DV2_Default
  6
Continuous
 62
     7
 48
25.4
100
AcDbLine
 10
189.7821810512
 20
272.1049875596
 30
0.0
 11
190.4892878323
 21
271.3978807784
 31
0.0
  0
LINE
  5
1CF
330
12C
100
AcDbEntity
  8
DV2_Default
  6
Continuous
 62
     7
 48
25.4
100
AcDbLine
 10
190.4892878323
 20
271.3978807784
 30
0.0
 11
193.7821810512
 21
271.3978807784
 31
0.0
  0
LINE
  5
1D0
330
12C
100
AcDbEntity
  8
DV2_Default
  6
Continuous
 62
     7
 48
25.4
100
AcDbLine
 10
193.7821810512
 20
271.3978807784
 30
0.0
 11
204.0856397388
 21
271.3978807784
 31
0.0
  0
LINE
  5
1D1
330
12C
100
AcDbEntity
  8
DV2_Default
  6
Continuous
 62
     7
 48
25.4
100
AcDbLine
 10
204.0856397388
 20
278.6049875596
 30
0.0
 11
189.7821810512
 21
278.6049875596
 31
0.0
  0
LINE
  5
1D2
330
12C
100
AcDbEntity
  8
DV2_Default
  6
Continuous
 62
     7
 48
25.4
100
AcDbLine
 10
173.0856402535
 20
281.6049875596
 30
0.0
 11
173.0856402535
 21
281.6049875596
 31
0.0
  0
LINE
  5
1D3
330
12C
100
AcDbEntity
  8
DV2_Default
  6
Continuous
 62
     7
 48
25.4
100
AcDbLine
 10
173.0856402535
 20
281.6049875596
 30
0.0
 11
174.5856402535
 21
283.1049875596
 31
0.0
  0
LINE
  5
1D4
330
12C
100
AcDbEntity
  8
DV2_Default
  6
Continuous
 62
     7
 48
25.4
100
AcDbLine
 10
174.5856402535
 20
283.1049875596
 30
0.0
 11
174.5856402535
 21
297.1049875596
 31
0.0
  0
LINE
  5
1D5
330
12C
100
AcDbEntity
  8
DV2_Default
  6
Continuous
 62
     7
 48
25.4
100
AcDbLine
 10
173.0856402535
 20
281.6049875596
 30
0.0
 11
173.0856402535
 21
297.1049875596
 31
0.0
  0
LINE
  5
1D6
330
12C
100
AcDbEntity
  8
DV2_Default
  6
Continuous
 62
     7
 48
25.4
100
AcDbLine
 10
216.0856397388
 20
283.1049875596
 30
0.0
 11
216.0856397388
 21
297.1049875596
 31
0.0
  0
LINE
  5
1D7
330
12C
100
AcDbEntity
  8
DV2_Default
  6
Continuous
 62
     7
 48
25.4
100
AcDbLine
 10
216.0856397388
 20
283.1049875596
 30
0.0
 11
218.0856397388
 21
281.1049875596
 31
0.0
  0
LINE
  5
1D8
330
12C
100
AcDbEntity
  8
DV2_Default
  6
Continuous
 62
     7
 48
25.4
100
AcDbLine
 10
218.0856397388
 20
281.1049875596
 30
0.0
 11
218.0856397388
 21
297.1049875596
 31
0.0
  0
LINE
  5
1D9
330
12C
100
AcDbEntity
  8
DV2_Default
  6
Continuous
 62
     7
 48
25.4
100
AcDbLine
 10
214.0856397388
 20
327.2983065009
 30
0.0
 11
213.0856397388
 21
327.2983065009
 31
0.0
  0
LINE
  5
1DA
330
12C
100
AcDbEntity
  8
DV2_Default
  6
Continuous
 62
     7
 48
25.4
100
AcDbLine
 10
146.0856402535
 20
297.1049875596
 30
0.0
 11
146.0856402535
 21
318.6049875596
 31
0.0
  0
LINE
  5
1DB
330
12C
100
AcDbEntity
  8
DV2_Default
  6
Continuous
 62
     7
 48
25.4
100
AcDbLine
 10
147.0856402535
 20
319.6049875596
 30
0.0
 11
171.356386348
 21
319.6049875596
 31
0.0
  0
LINE
  5
1DC
330
12C
100
AcDbEntity
  8
DV2_Default
  6
Continuous
 62
     7
 48
25.4
100
AcDbLine
 10
136.0856402535
 20
332.1049875596
 30
0.0
 11
157.8736314618
 21
332.1049875596
 31
0.0
  0
LINE
  5
1DD
330
12C
100
AcDbEntity
  8
DV2_Default
  6
Continuous
 62
     7
 48
25.4
100
AcDbLine
 10
151.0856402535
 20
332.1049875596
 30
0.0
 11
151.0856402535
 21
319.6049875596
 31
0.0
  0
LINE
  5
1DE
330
12C
100
AcDbEntity
  8
DV2_Default
  6
Continuous
 62
     7
 48
25.4
100
AcDbLine
 10
146.0856402535
 20
297.1049875596
 30
0.0
 11
146.0856402535
 21
307.1049875596
 31
0.0
  0
LINE
  5
1DF
330
12C
100
AcDbEntity
  8
DV2_Default
  6
Continuous
 62
     7
 48
25.4
100
AcDbLine
 10
146.0856402535
 20
307.1049875596
 30
0.0
 11
166.0856402535
 21
307.1049875596
 31
0.0
  0
LINE
  5
1E0
330
12C
100
AcDbEntity
  8
DV2_Default
  6
Continuous
 62
     7
 48
25.4
100
AcDbLine
 10
170.0856402535
 20
297.1049875596
 30
0.0
 11
170.0856402535
 21
316.6049875596
 31
0.0
  0
LINE
  5
1E1
330
12C
100
AcDbEntity
  8
DV2_Default
  6
Continuous
 62
     7
 48
25.4
100
AcDbLine
 10
166.0856402535
 20
316.1049875596
 30
0.0
 11
146.0856402535
 21
316.1049875596
 31
0.0
  0
LINE
  5
1E2
330
12C
100
AcDbEntity
  8
DV2_Default
  6
Continuous
 62
     7
 48
25.4
100
AcDbLine
 10
169.5856402535
 20
317.1049875596
 30
0.0
 11
166.5856402535
 21
317.1049875596
 31
0.0
  0
LINE
  5
1E3
330
12C
100
AcDbEntity
  8
DV2_Default
  6
Continuous
 62
     7
 48
25.4
100
AcDbLine
 10
166.0856402535
 20
316.6049875596
 30
0.0
 11
166.0856402535
 21
297.1049875596
 31
0.0
  0
LINE
  5
1E4
330
12C
100
AcDbEntity
  8
DV2_Default
  6
Continuous
 62
     7
 48
25.4
100
AcDbLine
 10
166.0856402535
 20
314.6049875596
 30
0.0
 11
146.0856402535
 21
314.6049875596
 31
0.0
  0
ARC
  5
1E5
330
12C
100
AcDbEntity
  8
DV2_Default
  6
Continuous
 62
     7
 48
25.4
100
AcDbCircle
 10
166.5856402535
 20
316.6049875596
 30
0.0
 40
0.5
100
AcDbArc
 50
90.0
 51
180.0
  0
ARC
  5
1E6
330
12C
100
AcDbEntity
  8
DV2_Default
  6
Continuous
 62
     7
 48
25.4
100
AcDbCircle
 10
169.5856402535
 20
316.6049875596
 30
0.0
 40
0.5
100
AcDbArc
 50
0.0
 51
90.0
  0
LINE
  5
1E7
330
12C
100
AcDbEntity
  8
DV2_Default
  6
Continuous
 62
     7
 48
25.4
100
AcDbLine
 10
146.0856402535
 20
318.6049875596
 30
0.0
 11
147.0856402535
 21
319.6049875596
 31
0.0
  0
LINE
  5
1E8
330
12C
100
AcDbEntity
  8
DV2_Default
  6
Continuous
 62
     7
 48
25.4
100
AcDbLine
 10
213.0856397388
 20
327.2983065009
 30
0.0
 11
213.0856397388
 21
312.6049875596
 31
0.0
  0
LINE
  5
1E9
330
12C
100
AcDbEntity
  8
DV2_Default
  6
Continuous
 62
     7
 48
25.4
100
AcDbLine
 10
173.0856402535
 20
312.6049875596
 30
0.0
 11
173.0856402535
 21
312.6049875596
 31
0.0
  0
LINE
  5
1EA
330
12C
100
AcDbEntity
  8
DV2_Default
  6
Continuous
 62
     7
 48
25.4
100
AcDbLine
 10
173.0856402535
 20
312.6049875596
 30
0.0
 11
174.5856402535
 21
311.1049875596
 31
0.0
  0
LINE
  5
1EB
330
12C
100
AcDbEntity
  8
DV2_Default
  6
Continuous
 62
     7
 48
25.4
100
AcDbLine
 10
174.5856402535
 20
311.1049875596
 30
0.0
 11
174.5856402535
 21
297.1049875596
 31
0.0
  0
LINE
  5
1EC
330
12C
100
AcDbEntity
  8
DV2_Default
  6
Continuous
 62
     7
 48
25.4
100
AcDbLine
 10
173.0856402535
 20
312.6049875596
 30
0.0
 11
173.0856402535
 21
297.1049875596
 31
0.0
  0
LINE
  5
1ED
330
12C
100
AcDbEntity
  8
DV2_Default
  6
Continuous
 62
     7
 48
25.4
100
AcDbLine
 10
216.0856397388
 20
311.1049875596
 30
0.0
 11
216.0856397388
 21
297.1049875596
 31
0.0
  0
LINE
  5
1EE
330
12C
100
AcDbEntity
  8
DV2_Default
  6
Continuous
 62
     7
 48
25.4
100
AcDbLine
 10
216.0856397388
 20
311.1049875596
 30
0.0
 11
218.0856397388
 21
313.1049875596
 31
0.0
  0
LINE
  5
1EF
330
12C
100
AcDbEntity
  8
DV2_Default
  6
Continuous
 62
     7
 48
25.4
100
AcDbLine
 10
218.0856397388
 20
313.1049875596
 30
0.0
 11
218.0856397388
 21
297.1049875596
 31
0.0
  0
LINE
  5
1F0
330
12C
100
AcDbEntity
  8
DV2_Default
  6
Continuous
 62
     7
 48
25.4
100
AcDbLine
 10
218.0856397388
 20
313.1049875596
 30
0.0
 11
218.086205393
 21
335.2983065009
 31
0.0
  0
LINE
  5
1F1
330
12C
100
AcDbEntity
  8
DV2_Default
  6
Continuous
 62
     7
 48
25.4
100
AcDbLine
 10
214.0856397388
 20
327.2983065009
 30
0.0
 11
218.0859426267
 21
324.9887305517
 31
0.0
  0
LINE
  5
1F2
330
12C
100
AcDbEntity
  8
DV2_Default
  6
HIDDEN2
 62
     7
 48
25.4
100
AcDbLine
 10
218.0856397388
 20
336.3549875596
 30
0.0
 11
213.0856397388
 21
336.3549875596
 31
0.0
  0
LINE
  5
1F3
330
12C
100
AcDbEntity
  8
DV2_Default
  6
HIDDEN2
 62
     7
 48
25.4
100
AcDbLine
 10
213.0856397388
 20
327.2983065009
 30
0.0
 11
213.0856397388
 21
336.3549875596
 31
0.0
  0
LINE
  5
1F4
330
12C
100
AcDbEntity
  8
DV2_Default
  6
Continuous
 62
     7
 48
25.4
100
AcDbLine
 10
218.0856397388
 20
336.3549875596
 30
0.0
 11
219.0856397388
 21
336.3549875596
 31
0.0
  0
LINE
  5
1F5
330
12C
100
AcDbEntity
  8
DV2_Default
  6
Continuous
 62
     7
 48
25.4
100
AcDbLine
 10
219.0856397388
 20
336.3549875596
 30
0.0
 11
220.0185705674
 21
337.2879183882
 31
0.0
  0
LINE
  5
1F6
330
12C
100
AcDbEntity
  8
DV2_Default
  6
Continuous
 62
     7
 48
25.4
100
AcDbLine
 10
136.0856402535
 20
332.1049875596
 30
0.0
 11
136.0856402535
 21
342.1049875596
 31
0.0
  0
LINE
  5
1F7
330
12C
100
AcDbEntity
  8
DV2_Default
  6
Continuous
 62
     7
 48
25.4
100
AcDbLine
 10
136.0856402535
 20
342.1049875596
 30
0.0
 11
151.9670216512
 21
342.1049875596
 31
0.0
  0
LINE
  5
1F8
330
12C
100
AcDbEntity
  8
DV2_Default
  6
Continuous
 62
     7
 48
25.4
100
AcDbLine
 10
151.9670216512
 20
342.1049875596
 30
0.0
 11
151.9670216512
 21
332.1049875596
 31
0.0
  0
LINE
  5
1F9
330
12C
100
AcDbEntity
  8
DV2_Default
  6
Continuous
 62
     7
 48
25.4
100
AcDbLine
 10
149.9670216512
 20
342.1049875596
 30
0.0
 11
149.9670216512
 21
349.933582994
 31
0.0
  0
SPLINE
  5
1FA
330
12C
100
AcDbEntity
  8
DV2_Default
  6
Continuous
 62
     7
 48
25.4
100
AcDbSpline
210
0.0
220
0.0
230
1.0
 70
     8
 71
     3
 72
    13
 73
     9
 74
     0
 42
0.0000000001
 43
0.0000000001
 40
0.0
 40
0.0
 40
0.0
 40
0.0
 40
0.0990995147026949
 40
0.439040111583539
 40
0.8471305982266078
 40
0.8871471627401574
 40
0.9630357757122267
 40
1.0
 40
1.0
 40
1.0
 40
1.0
 10
131.0856402534622
 20
371.8535527066138
 30
0.0
 10
134.0985261616966
 20
372.0855265688718
 30
0.0
 10
147.026911547096
 20
372.9669502990161
 30
0.0
 10
148.7487514602405
 20
339.8935018781687
 30
0.0
 10
162.7400282250617
 20
325.4033702183295
 30
0.0
 10
173.6249690320221
 20
318.0497773640926
 30
0.0
 10
180.206424745325
 20
317.0379736827322
 30
0.0
 10
181.9525453765593
 20
313.6632470089438
 30
0.0
 10
182.4155205525595
 20
312.6049875460065
 30
0.0
  0
LINE
  5
1FB
330
12C
100
AcDbEntity
  8
DV2_Default
  6
Continuous
 62
     7
 48
25.4
100
AcDbLine
 10
151.9670216512
 20
340.5995170598
 30
0.0
 11
152.9525114515
 21
340.5995170598
 31
0.0
  0
LINE
  5
1FC
330
12C
100
AcDbEntity
  8
DV2_Default
  6
Continuous
 62
     7
 48
25.4
100
AcDbLine
 10
151.9670216512
 20
337.1049875596
 30
0.0
 11
153.929169068
 21
337.1049875596
 31
0.0
  0
LINE
  5
1FD
330
12C
100
AcDbEntity
  8
DV2_Default
  6
Continuous
 62
     7
 48
25.4
100
AcDbLine
 10
153.929169068
 20
337.1049875596
 30
0.0
 11
154.4117693182
 21
337.5875878098
 31
0.0
  0
LINE
  5
1FE
330
12C
100
AcDbEntity
  8
DV2_Default
  6
Continuous
 62
     7
 48
25.4
100
AcDbLine
 10
131.0856402535
 20
216.606422399
 30
0.0
 11
133.0856397388
 21
214.6049875596
 31
0.0
  0
LINE
  5
1FF
330
12C
100
AcDbEntity
  8
DV2_Default
  6
Continuous
 62
     7
 48
25.4
100
AcDbLine
 10
218.086205393
 20
216.5483109828
 30
0.0
 11
216.1414872909
 21
214.6049875596
 31
0.0
  0
LINE
  5
200
330
12C
100
AcDbEntity
  8
DV2_Default
  6
Continuous
 62
     7
 48
25.4
100
AcDbLine
 10
218.0856397388
 20
281.1049875596
 30
0.0
 11
218.086205393
 21
216.5483109828
 31
0.0
  0
LINE
  5
201
330
12C
100
AcDbEntity
  8
DV2_Default
  6
Continuous
 62
     7
 48
25.4
100
AcDbLine
 10
131.0856402535
 20
216.606422399
 30
0.0
 11
131.0856402535
 21
226.1035527202
 31
0.0
  0
LINE
  5
202
330
12C
100
AcDbEntity
  8
DV2_Default
  6
Continuous
 62
     7
 48
25.4
100
AcDbLine
 10
121.0856402535
 20
338.3864875596
 30
0.0
 11
131.0856402535
 21
337.1586419506
 31
0.0
  0
LINE
  5
203
330
12C
100
AcDbEntity
  8
DV2_Default
  6
Continuous
 62
     7
 48
25.4
100
AcDbLine
 10
131.0856402535
 20
337.1586419506
 30
0.0
 11
136.0856402535
 21
337.1586419506
 31
0.0
  0
LINE
  5
204
330
12C
100
AcDbEntity
  8
DV2_Default
  6
Continuous
 62
     7
 48
25.4
100
AcDbLine
 10
121.0856402535
 20
255.8234875596
 30
0.0
 11
131.0856402535
 21
257.0513331687
 31
0.0
  0
LINE
  5
205
330
12C
100
AcDbEntity
  8
DV2_Default
  6
Continuous
 62
     7
 48
25.4
100
AcDbLine
 10
131.0856402535
 20
257.0513331687
 30
0.0
 11
136.0856402535
 21
257.0513331687
 31
0.0
  0
LINE
  5
206
330
12C
100
AcDbEntity
  8
DV2_Default
  6
Continuous
 62
     7
 48
25.4
100
AcDbLine
 10
131.0856402535
 20
337.1586419506
 30
0.0
 11
131.0856402535
 21
257.0513331687
 31
0.0
  0
LINE
  5
207
330
12C
100
AcDbEntity
  8
DV2_Default
  6
Continuous
 62
     7
 48
25.4
100
AcDbLine
 10
217.0856397388
 20
252.2035527202
 30
0.0
 11
218.085892977
 21
252.2035527202
 31
0.0
  0
LINE
  5
208
330
12C
100
AcDbEntity
  8
DV2_Default
  6
Continuous
 62
     7
 48
25.4
100
AcDbLine
 10
217.0856397388
 20
235.2035527202
 30
0.0
 11
218.0860419333
 21
235.2035527202
 31
0.0
  0
LINE
  5
209
330
12C
100
AcDbEntity
  8
DV2_Default
  6
CENTER2
 62
     7
 48
25.4
100
AcDbLine
 10
252.2729621152
 20
346.5409592517
 30
0.0
 11
211.1736558652
 21
346.5409592517
 31
0.0
  0
LINE
  5
20A
330
12C
100
AcDbEntity
  8
DV2_Default
  6
CENTER2
 62
     7
 48
25.4
100
AcDbLine
 10
251.7579031255
 20
366.5945949651
 30
0.0
 11
211.1736558652
 21
366.5945949651
 31
0.0
  0
LINE
  5
20B
330
12C
100
AcDbEntity
  8
DV2_Default
  6
Continuous
 62
     7
 48
25.4
100
AcDbLine
 10
133.0856397388
 20
379.6049875596
 30
0.0
 11
216.1414872909
 21
379.6049875596
 31
0.0
  0
LINE
  5
20C
330
12C
100
AcDbEntity
  8
DV2_Default
  6
Continuous
 62
     7
 48
25.4
100
AcDbLine
 10
147.0856402535
 20
274.6049875596
 30
0.0
 11
186.7821810512
 21
274.6049875596
 31
0.0
  0
LINE
  5
20D
330
12C
100
AcDbEntity
  8
DV2_Default
  6
Continuous
 62
     7
 48
25.4
100
AcDbLine
 10
186.3552586289
 20
262.1049875596
 30
0.0
 11
136.0856402535
 21
262.1049875596
 31
0.0
  0
LINE
  5
20E
330
12C
100
AcDbEntity
  8
DV2_Default
  6
Continuous
 62
     7
 48
25.4
100
AcDbLine
 10
213.0856397388
 20
281.6049875596
 30
0.0
 11
170.0856402535
 21
281.6049875596
 31
0.0
  0
LINE
  5
20F
330
12C
100
AcDbEntity
  8
DV2_Default
  6
Continuous
 62
     7
 48
25.4
100
AcDbLine
 10
216.0856397388
 20
283.1049875596
 30
0.0
 11
174.5856402535
 21
283.1049875596
 31
0.0
  0
LINE
  5
210
330
12C
100
AcDbEntity
  8
DV2_Default
  6
Continuous
 62
     7
 48
25.4
100
AcDbLine
 10
216.0856397388
 20
311.1049875596
 30
0.0
 11
174.5856402535
 21
311.1049875596
 31
0.0
  0
LINE
  5
211
330
12C
100
AcDbEntity
  8
DV2_Default
  6
Continuous
 62
     7
 48
25.4
100
AcDbLine
 10
213.0856397388
 20
312.6049875596
 30
0.0
 11
170.0856402535
 21
312.6049875596
 31
0.0
  0
LINE
  5
212
330
12C
100
AcDbEntity
  8
DV2_Default
  6
Continuous
 62
     7
 48
25.4
100
AcDbLine
 10
133.0856397388
 20
214.6049875596
 30
0.0
 11
216.1414872909
 21
214.6049875596
 31
0.0
  0
LINE
  5
213
330
12C
100
AcDbEntity
  8
DV2_Default
  6
Continuous
 62
     7
 48
25.4
100
AcDbLine
 10
113.0856397388
 20
248.7035527202
 30
0.0
 11
105.0856402535
 21
248.7035527202
 31
0.0
  0
LINE
  5
214
330
12C
100
AcDbEntity
  8
DV2_Default
  6
Continuous
 62
     7
 48
25.4
100
AcDbLine
 10
113.0856397388
 20
238.7035527202
 30
0.0
 11
105.0856402535
 21
238.7035527202
 31
0.0
  0
LINE
  5
215
330
12C
100
AcDbEntity
  8
DV2_Default
  6
Continuous
 62
     7
 48
25.4
100
AcDbLine
 10
144.0856397388
 20
249.7035527202
 30
0.0
 11
136.0856402535
 21
249.7035527202
 31
0.0
  0
LINE
  5
216
330
12C
100
AcDbEntity
  8
DV2_Default
  6
Continuous
 62
     7
 48
25.4
100
AcDbLine
 10
144.0856397388
 20
237.7035527202
 30
0.0
 11
136.0856402535
 21
237.7035527202
 31
0.0
  0
ENDBLK
  5
218
330
12C
100
AcDbEntity
  8
0
100
AcDbBlockEnd
  0
BLOCK
  5
223
330
219
100
AcDbEntity
  8
0
100
AcDbBlockBegin
  2
GDimGGroup1
 70
     0
 71
     0
 10
0.0
 20
0.0
 30
0.0
  3
GDimGGroup1
  1

  0
HATCH
  5
21B
330
219
100
AcDbEntity
  8
Default
  6
Continuous
 62
     7
 48
25.4
100
AcDbHatch
 10
0.0
 20
0.0
 30
0.0
210
0.0
220
0.0
230
1.0
  2
SOLID
 70
     1
 71
     0
 91
        1
 92
        1
 93
        3
 72
     1
 10
117.0856400634724
 20
184.9750755522724
 11
121.0856402534622
 21
185.641742250604
 72
     1
 10
121.0856402534622
 20
185.641742250604
 11
117.0856400634724
 21
186.3084089489356
 72
     1
 10
117.0856400634724
 20
186.3084089489356
 11
117.0856400634724
 21
184.9750755522724
 97
        0
 75
     0
 76
     1
 98
        0
  0
LWPOLYLINE
  5
21C
330
219
100
AcDbEntity
  8
Default
  6
Continuous
 62
     7
 48
25.4
370
    30
100
AcDbPolyline
 90
        4
 70
     1
 43
0.00035
 10
117.0856400635
 20
184.9750755523
 10
121.0856402535
 20
185.6417422506
 10
117.0856400635
 20
186.3084089489
 10
117.0856400635
 20
184.9750755523
  0
HATCH
  5
21D
330
219
100
AcDbEntity
  8
Default
  6
Continuous
 62
     7
 48
25.4
100
AcDbHatch
 10
0.0
 20
0.0
 30
0.0
210
0.0
220
0.0
230
1.0
  2
SOLID
 70
     1
 71
     0
 91
        1
 92
        1
 93
        3
 72
     1
 10
109.0856396834928
 20
184.9750755522724
 11
109.0856396834928
 21
186.3084089489356
 72
     1
 10
109.0856396834928
 20
186.3084089489356
 11
105.085639493503
 21
185.641742250604
 72
     1
 10
105.085639493503
 20
185.641742250604
 11
109.0856396834928
 21
184.9750755522724
 97
        0
 75
     0
 76
     1
 98
        0
  0
LWPOLYLINE
  5
21E
330
219
100
AcDbEntity
  8
Default
  6
Continuous
 62
     7
 48
25.4
370
    30
100
AcDbPolyline
 90
        4
 70
     1
 43
0.00035
 10
109.0856396835
 20
184.9750755523
 10
105.0856394935
 20
185.6417422506
 10
109.0856396835
 20
186.3084089489
 10
109.0856396835
 20
184.9750755523
  0
LINE
  5
21F
330
219
100
AcDbEntity
  8
Default
  6
Continuous
 62
     7
 48
25.4
100
AcDbLine
 10
121.0856402535
 20
227.1035527202
 30
0.0
 11
121.0856402535
 21
183.6417421556
 31
0.0
  0
LINE
  5
220
330
219
100
AcDbEntity
  8
Default
  6
Continuous
 62
     7
 48
25.4
100
AcDbLine
 10
105.0856402535
 20
238.7035527202
 30
0.0
 11
105.0856402535
 21
183.6417421556
 31
0.0
  0
LINE
  5
221
330
219
100
AcDbEntity
  8
Default
  6
Continuous
 62
     7
 48
25.4
100
AcDbLine
 10
121.0856402535
 20
185.6417422506
 30
0.0
 11
105.0856394935
 21
185.6417422506
 31
0.0
  0
TEXT
  5
222
330
219
100
AcDbEntity
  8
Default
  6
Continuous
 62
     7
 48
25.4
100
AcDbText
 10
109.9552050909
 20
186.6417422506
 30
0.0
 40
4.0
  1
16
  7
SEACAD_arial_ttf
 11
109.9552050909
 21
190.6417422506
 31
0.0
100
AcDbText
 73
     3
  0
ENDBLK
  5
224
330
219
100
AcDbEntity
  8
0
100
AcDbBlockEnd
  0
BLOCK
  5
22F
330
225
100
AcDbEntity
  8
0
100
AcDbBlockBegin
  2
GDimGGroup2
 70
     0
 71
     0
 10
0.0
 20
0.0
 30
0.0
  3
GDimGGroup2
  1

  0
HATCH
  5
227
330
225
100
AcDbEntity
  8
Default
  6
Continuous
 62
     7
 48
25.4
100
AcDbHatch
 10
0.0
 20
0.0
 30
0.0
210
0.0
220
0.0
230
1.0
  2
SOLID
 70
     1
 71
     0
 91
        1
 92
        1
 93
        3
 72
     1
 10
132.0856400634724
 20
200.3454035315987
 11
136.0856402534622
 21
201.0120702299303
 72
     1
 10
136.0856402534622
 20
201.0120702299303
 11
132.0856400634724
 21
201.6787369282619
 72
     1
 10
132.0856400634724
 20
201.6787369282619
 11
132.0856400634724
 21
200.3454035315987
 97
        0
 75
     0
 76
     1
 98
        0
  0
LWPOLYLINE
  5
228
330
225
100
AcDbEntity
  8
Default
  6
Continuous
 62
     7
 48
25.4
370
    30
100
AcDbPolyline
 90
        4
 70
     1
 43
0.00035
 10
132.0856400635
 20
200.3454035316
 10
136.0856402535
 20
201.0120702299
 10
132.0856400635
 20
201.6787369283
 10
132.0856400635
 20
200.3454035316
  0
HATCH
  5
229
330
225
100
AcDbEntity
  8
Default
  6
Continuous
 62
     7
 48
25.4
100
AcDbHatch
 10
0.0
 20
0.0
 30
0.0
210
0.0
220
0.0
230
1.0
  2
SOLID
 70
     1
 71
     0
 91
        1
 92
        1
 93
        3
 72
     1
 10
125.0856407787281
 20
200.3454035315987
 11
125.0856407787281
 21
201.6787369282619
 72
     1
 10
125.0856407787281
 20
201.6787369282619
 11
121.0856405887383
 21
201.0120702299303
 72
     1
 10
121.0856405887383
 20
201.0120702299303
 11
125.0856407787281
 21
200.3454035315987
 97
        0
 75
     0
 76
     1
 98
        0
  0
LWPOLYLINE
  5
22A
330
225
100
AcDbEntity
  8
Default
  6
Continuous
 62
     7
 48
25.4
370
    30
100
AcDbPolyline
 90
        4
 70
     1
 43
0.00035
 10
125.0856407787
 20
200.3454035316
 10
121.0856405887
 20
201.0120702299
 10
125.0856407787
 20
201.6787369283
 10
125.0856407787
 20
200.3454035316
  0
LINE
  5
22B
330
225
100
AcDbEntity
  8
Default
  6
Continuous
 62
     7
 48
25.4
100
AcDbLine
 10
136.0856402535
 20
227.1035527202
 30
0.0
 11
136.0856402535
 21
199.0120701349
 31
0.0
  0
LINE
  5
22C
330
225
100
AcDbEntity
  8
Default
  6
Continuous
 62
     7
 48
25.4
100
AcDbLine
 10
121.0856402535
 20
227.1035527202
 30
0.0
 11
121.0856402535
 21
199.0120701349
 31
0.0
  0
LINE
  5
22D
330
225
100
AcDbEntity
  8
Default
  6
Continuous
 62
     7
 48
25.4
100
AcDbLine
 10
136.0856402535
 20
201.0120702299
 30
0.0
 11
121.0856405887
 21
201.0120702299
 31
0.0
  0
TEXT
  5
22E
330
225
100
AcDbEntity
  8
Default
  6
Continuous
 62
     7
 48
25.4
100
AcDbText
 10
125.4552056385
 20
202.0120702299
 30
0.0
 40
4.0
  1
15
  7
SEACAD_arial_ttf
 11
125.4552056385
 21
206.0120702299
 31
0.0
100
AcDbText
 73
     3
  0
ENDBLK
  5
230
330
225
100
AcDbEntity
  8
0
100
AcDbBlockEnd
  0
BLOCK
  5
23C
330
231
100
AcDbEntity
  8
0
100
AcDbBlockBegin
  2
GDimGGroup3
 70
     0
 71
     0
 10
0.0
 20
0.0
 30
0.0
  3
GDimGGroup3
  1

  0
HATCH
  5
233
330
231
100
AcDbEntity
  8
Default
  6
Continuous
 62
     7
 48
25.4
100
AcDbHatch
 10
0.0
 20
0.0
 30
0.0
210
0.0
220
0.0
230
1.0
  2
SOLID
 70
     1
 71
     0
 91
        1
 92
        1
 93
        3
 72
     1
 10
232.6220075543799
 20
239.2035529102213
 11
231.2886741577166
 21
239.2035529102213
 72
     1
 10
231.2886741577166
 20
239.2035529102213
 11
231.9553408560483
 21
235.2035527202314
 72
     1
 10
231.9553408560483
 20
235.2035527202314
 11
232.6220075543799
 21
239.2035529102213
 97
        0
 75
     0
 76
     1
 98
        0
  0
LWPOLYLINE
  5
234
330
231
100
AcDbEntity
  8
Default
  6
Continuous
 62
     7
 48
25.4
370
    30
100
AcDbPolyline
 90
        4
 70
     1
 43
0.00035
 10
232.6220075544
 20
239.2035529102
 10
231.955340856
 20
235.2035527202
 10
231.2886741577
 20
239.2035529102
 10
232.6220075544
 20
239.2035529102
  0
HATCH
  5
235
330
231
100
AcDbEntity
  8
Default
  6
Continuous
 62
     7
 48
25.4
100
AcDbHatch
 10
0.0
 20
0.0
 30
0.0
210
0.0
220
0.0
230
1.0
  2
SOLID
 70
     1
 71
     0
 91
        1
 92
        1
 93
        3
 72
     1
 10
232.6220075543799
 20
248.2035525302416
 11
231.9553408560483
 21
252.2035527202314
 72
     1
 10
231.9553408560483
 20
252.2035527202314
 11
231.2886741577166
 21
248.2035525302416
 72
     1
 10
231.2886741577166
 20
248.2035525302416
 11
232.6220075543799
 21
248.2035525302416
 97
        0
 75
     0
 76
     1
 98
        0
  0
LWPOLYLINE
  5
236
330
231
100
AcDbEntity
  8
Default
  6
Continuous
 62
     7
 48
25.4
370
    30
100
AcDbPolyline
 90
        4
 70
     1
 43
0.00035
 10
232.6220075544
 20
248.2035525302
 10
231.955340856
 20
252.2035527202
 10
231.2886741577
 20
248.2035525302
 10
232.6220075544
 20
248.2035525302
  0
LINE
  5
237
330
231
100
AcDbEntity
  8
Default
  6
Continuous
 62
     7
 48
25.4
100
AcDbLine
 10
217.0856397388
 20
235.2035527202
 30
0.0
 11
233.955340951
 21
235.2035527202
 31
0.0
  0
LINE
  5
238
330
231
100
AcDbEntity
  8
Default
  6
Continuous
 62
     7
 48
25.4
100
AcDbLine
 10
217.0856397388
 20
252.2035527202
 30
0.0
 11
233.955340951
 21
252.2035527202
 31
0.0
  0
LINE
  5
239
330
231
100
AcDbEntity
  8
Default
  6
Continuous
 62
     7
 48
25.4
100
AcDbLine
 10
231.955340856
 20
235.2035527202
 30
0.0
 11
231.955340856
 21
270.1783699068
 31
0.0
  0
TEXT
  5
23A
330
231
100
AcDbEntity
  8
Default
  6
Continuous
 62
     7
 48
25.4
100
AcDbText
 10
230.955340856
 20
262.5174979618
 30
0.0
 40
4.0
  1
17
 50
90.0
  7
SEACAD_arial_ttf
 11
226.955340856
 21
262.5174979618
 31
0.0
100
AcDbText
 73
     3
  0
TEXT
  5
23B
330
231
100
AcDbEntity
  8
Default
  6
Continuous
 62
     7
 48
25.4
100
AcDbText
 10
230.955340856
 20
255.156094453
 30
0.0
 40
4.0
  1
O
 50
90.0
  7
SEACAD_semeca1_ttf
 11
226.955340856
 21
255.156094453
 31
0.0
100
AcDbText
 73
     3
  0
ENDBLK
  5
23D
330
231
100
AcDbEntity
  8
0
100
AcDbBlockEnd
  0
BLOCK
  5
24A
330
23E
100
AcDbEntity
  8
0
100
AcDbBlockBegin
  2
GDimGGroup4
 70
     0
 71
     0
 10
0.0
 20
0.0
 30
0.0
  3
GDimGGroup4
  1

  0
HATCH
  5
240
330
23E
100
AcDbEntity
  8
Default
  6
Continuous
 62
     7
 48
25.4
100
AcDbHatch
 10
0.0
 20
0.0
 30
0.0
210
0.0
220
0.0
230
1.0
  2
SOLID
 70
     1
 71
     0
 91
        1
 92
        1
 93
        3
 72
     1
 10
36.75078426794492
 20
230.1035529102212
 11
37.41745096627655
 21
226.1035527202314
 72
     1
 10
37.41745096627655
 20
226.1035527202314
 11
38.08411766460818
 21
230.1035529102212
 72
     1
 10
38.08411766460818
 20
230.1035529102212
 11
36.75078426794492
 21
230.1035529102212
 97
        0
 75
     0
 76
     1
 98
        0
  0
LWPOLYLINE
  5
241
330
23E
100
AcDbEntity
  8
Default
  6
Continuous
 62
     7
 48
25.4
370
    30
100
AcDbPolyline
 90
        4
 70
     1
 43
0.00035
 10
36.7507842679
 20
230.1035529102
 10
37.4174509663
 20
226.1035527202
 10
38.0841176646
 20
230.1035529102
 10
36.7507842679
 20
230.1035529102
  0
HATCH
  5
242
330
23E
100
AcDbEntity
  8
Default
  6
Continuous
 62
     7
 48
25.4
100
AcDbHatch
 10
0.0
 20
0.0
 30
0.0
210
0.0
220
0.0
230
1.0
  2
SOLID
 70
     1
 71
     0
 91
        1
 92
        1
 93
        3
 72
     1
 10
36.75078426794492
 20
362.103553126288
 11
38.08411766460818
 21
362.103553126288
 72
     1
 10
38.08411766460818
 20
362.103553126288
 11
37.41745096627655
 21
366.1035533162778
 72
     1
 10
37.41745096627655
 20
366.1035533162778
 11
36.75078426794492
 21
362.103553126288
 97
        0
 75
     0
 76
     1
 98
        0
  0
LWPOLYLINE
  5
243
330
23E
100
AcDbEntity
  8
Default
  6
Continuous
 62
     7
 48
25.4
370
    30
100
AcDbPolyline
 90
        4
 70
     1
 43
0.00035
 10
36.7507842679
 20
362.1035531263
 10
37.4174509663
 20
366.1035533163
 10
38.0841176646
 20
362.1035531263
 10
36.7507842679
 20
362.1035531263
  0
LINE
  5
244
330
23E
100
AcDbEntity
  8
Default
  6
Continuous
 62
     7
 48
25.4
100
AcDbLine
 10
122.0856402535
 20
226.1035527202
 30
0.0
 11
35.4174508713
 21
226.1035527202
 31
0.0
  0
LINE
  5
245
330
23E
100
AcDbEntity
  8
Default
  6
Continuous
 62
     7
 48
25.4
100
AcDbLine
 10
122.0856402535
 20
366.1035527202
 30
0.0
 11
35.4174508713
 21
366.1035527202
 31
0.0
  0
LINE
  5
246
330
23E
100
AcDbEntity
  8
Default
  6
Continuous
 62
     7
 48
25.4
100
AcDbLine
 10
37.4174509663
 20
226.1035527202
 30
0.0
 11
37.4174509663
 21
366.1035533163
 31
0.0
  0
TEXT
  5
247
330
23E
100
AcDbEntity
  8
Default
  6
Continuous
 62
     7
 48
25.4
100
AcDbText
 10
36.4174509663
 20
290.3233852074
 30
0.0
 40
4.0
  1
140
 50
90.0
  7
SEACAD_arial_ttf
 11
32.4174509663
 21
290.3233852074
 31
0.0
100
AcDbText
 73
     3
  0
TEXT
  5
248
330
23E
100
AcDbEntity
  8
Default
  6
Continuous
 62
     7
 48
25.4
100
AcDbText
 10
36.4174509663
 20
302.1146895552
 30
0.0
 40
4.0
  1
H6
 50
90.0
  7
SEACAD_arial_ttf
 11
32.4174509663
 21
302.1146895552
 31
0.0
100
AcDbText
 73
     3
  0
TEXT
  5
249
330
23E
100
AcDbEntity
  8
Default
  6
Continuous
 62
     7
 48
25.4
100
AcDbText
 10
36.4174509663
 20
282.9619816987
 30
0.0
 40
4.0
  1
O
 50
90.0
  7
SEACAD_semeca1_ttf
 11
32.4174509663
 21
282.9619816987
 31
0.0
100
AcDbText
 73
     3
  0
ENDBLK
  5
24B
330
23E
100
AcDbEntity
  8
0
100
AcDbBlockEnd
  0
BLOCK
  5
256
330
24C
100
AcDbEntity
  8
0
100
AcDbBlockBegin
  2
GDimGGroup5
 70
     0
 71
     0
 10
0.0
 20
0.0
 30
0.0
  3
GDimGGroup5
  1

  0
HATCH
  5
24E
330
24C
100
AcDbEntity
  8
Default
  6
Continuous
 62
     7
 48
25.4
100
AcDbHatch
 10
0.0
 20
0.0
 30
0.0
210
0.0
220
0.0
230
1.0
  2
SOLID
 70
     1
 71
     0
 91
        1
 92
        1
 93
        3
 72
     1
 10
329.5582061763682
 20
316.5945951550751
 11
328.2248727797049
 21
316.5945951550751
 72
     1
 10
328.2248727797049
 20
316.5945951550751
 11
328.8915394780366
 21
312.5945949650853
 72
     1
 10
328.8915394780366
 20
312.5945949650853
 11
329.5582061763682
 21
316.5945951550751
 97
        0
 75
     0
 76
     1
 98
        0
  0
LWPOLYLINE
  5
24F
330
24C
100
AcDbEntity
  8
Default
  6
Continuous
 62
     7
 48
25.4
370
    30
100
AcDbPolyline
 90
        4
 70
     1
 43
0.00035
 10
329.5582061764
 20
316.5945951551
 10
328.891539478
 20
312.5945949651
 10
328.2248727797
 20
316.5945951551
 10
329.5582061764
 20
316.5945951551
  0
HATCH
  5
250
330
24C
100
AcDbEntity
  8
Default
  6
Continuous
 62
     7
 48
25.4
100
AcDbHatch
 10
0.0
 20
0.0
 30
0.0
210
0.0
220
0.0
230
1.0
  2
SOLID
 70
     1
 71
     0
 91
        1
 92
        1
 93
        3
 72
     1
 10
329.5582061763682
 20
374.5945944174677
 11
328.8915394780366
 21
378.5945946074575
 72
     1
 10
328.8915394780366
 20
378.5945946074575
 11
328.2248727797049
 21
374.5945944174677
 72
     1
 10
328.2248727797049
 20
374.5945944174677
 11
329.5582061763682
 21
374.5945944174677
 97
        0
 75
     0
 76
     1
 98
        0
  0
LWPOLYLINE
  5
251
330
24C
100
AcDbEntity
  8
Default
  6
Continuous
 62
     7
 48
25.4
370
    30
100
AcDbPolyline
 90
        4
 70
     1
 43
0.00035
 10
329.5582061764
 20
374.5945944175
 10
328.891539478
 20
378.5945946075
 10
328.2248727797
 20
374.5945944175
 10
329.5582061764
 20
374.5945944175
  0
LINE
  5
252
330
24C
100
AcDbEntity
  8
Default
  6
Continuous
 62
     7
 48
25.4
100
AcDbLine
 10
247.0856397388
 20
312.5945949651
 30
0.0
 11
330.891539573
 21
312.5945949651
 31
0.0
  0
LINE
  5
253
330
24C
100
AcDbEntity
  8
Default
  6
Continuous
 62
     7
 48
25.4
100
AcDbLine
 10
247.0856395316
 20
378.5945949651
 30
0.0
 11
330.891539573
 21
378.5945949651
 31
0.0
  0
LINE
  5
254
330
24C
100
AcDbEntity
  8
Default
  6
Continuous
 62
     7
 48
25.4
100
AcDbLine
 10
328.891539478
 20
312.5945949651
 30
0.0
 11
328.891539478
 21
378.5945946075
 31
0.0
  0
TEXT
  5
255
330
24C
100
AcDbEntity
  8
Default
  6
Continuous
 62
     7
 48
25.4
100
AcDbText
 10
327.891539478
 20
342.4641600037
 30
0.0
 40
4.0
  1
66
 50
90.0
  7
SEACAD_arial_ttf
 11
323.891539478
 21
342.4641600037
 31
0.0
100
AcDbText
 73
     3
  0
ENDBLK
  5
257
330
24C
100
AcDbEntity
  8
0
100
AcDbBlockEnd
  0
BLOCK
  5
262
330
258
100
AcDbEntity
  8
0
100
AcDbBlockBegin
  2
GDimGGroup6
 70
     0
 71
     0
 10
0.0
 20
0.0
 30
0.0
  3
GDimGGroup6
  1

  0
HATCH
  5
25A
330
258
100
AcDbEntity
  8
Default
  6
Continuous
 62
     7
 48
25.4
100
AcDbHatch
 10
0.0
 20
0.0
 30
0.0
210
0.0
220
0.0
230
1.0
  2
SOLID
 70
     1
 71
     0
 91
        1
 92
        1
 93
        3
 72
     1
 10
222.0862055829597
 20
398.3613625368568
 11
218.0862053929699
 21
397.6946958385252
 72
     1
 10
218.0862053929699
 20
397.6946958385252
 11
222.0862055829597
 21
397.0280291401935
 72
     1
 10
222.0862055829597
 20
397.0280291401935
 11
222.0862055829597
 21
398.3613625368568
 97
        0
 75
     0
 76
     1
 98
        0
  0
LWPOLYLINE
  5
25B
330
258
100
AcDbEntity
  8
Default
  6
Continuous
 62
     7
 48
25.4
370
    30
100
AcDbPolyline
 90
        4
 70
     1
 43
0.00035
 10
222.086205583
 20
398.3613625369
 10
218.086205393
 20
397.6946958385
 10
222.086205583
 20
397.0280291402
 10
222.086205583
 20
398.3613625369
  0
HATCH
  5
25C
330
258
100
AcDbEntity
  8
Default
  6
Continuous
 62
     7
 48
25.4
100
AcDbHatch
 10
0.0
 20
0.0
 30
0.0
210
0.0
220
0.0
230
1.0
  2
SOLID
 70
     1
 71
     0
 91
        1
 92
        1
 93
        3
 72
     1
 10
243.0856399870348
 20
398.3613625368568
 11
243.0856399870348
 21
397.0280291401935
 72
     1
 10
243.0856399870348
 20
397.0280291401935
 11
247.0856401770246
 21
397.6946958385252
 72
     1
 10
247.0856401770246
 20
397.6946958385252
 11
243.0856399870348
 21
398.3613625368568
 97
        0
 75
     0
 76
     1
 98
        0
  0
LWPOLYLINE
  5
25D
330
258
100
AcDbEntity
  8
Default
  6
Continuous
 62
     7
 48
25.4
370
    30
100
AcDbPolyline
 90
        4
 70
     1
 43
0.00035
 10
243.085639987
 20
398.3613625369
 10
247.085640177
 20
397.6946958385
 10
243.085639987
 20
397.0280291402
 10
243.085639987
 20
398.3613625369
  0
LINE
  5
25E
330
258
100
AcDbEntity
  8
Default
  6
Continuous
 62
     7
 48
25.4
100
AcDbLine
 10
218.086205393
 20
377.6616641365
 30
0.0
 11
218.086205393
 21
399.6946959335
 31
0.0
  0
LINE
  5
25F
330
258
100
AcDbEntity
  8
Default
  6
Continuous
 62
     7
 48
25.4
100
AcDbLine
 10
247.0856397388
 20
378.5945949651
 30
0.0
 11
247.0856397388
 21
399.6946959335
 31
0.0
  0
LINE
  5
260
330
258
100
AcDbEntity
  8
Default
  6
Continuous
 62
     7
 48
25.4
100
AcDbLine
 10
218.086205393
 20
397.6946958385
 30
0.0
 11
247.085640177
 21
397.6946958385
 31
0.0
  0
TEXT
  5
261
330
258
100
AcDbEntity
  8
Default
  6
Continuous
 62
     7
 48
25.4
100
AcDbText
 10
229.4554880024
 20
398.6946958385
 30
0.0
 40
4.0
  1
29
  7
SEACAD_arial_ttf
 11
229.4554880024
 21
402.6946958385
 31
0.0
100
AcDbText
 73
     3
  0
ENDBLK
  5
263
330
258
100
AcDbEntity
  8
0
100
AcDbBlockEnd
  0
BLOCK
  5
2EF
330
264
100
AcDbEntity
  8
0
100
AcDbBlockBegin
  2
SE2
 70
     0
 71
     0
 10
0.0
 20
0.0
 30
0.0
  3
SE2
  1

  0
LINE
  5
267
330
264
100
AcDbEntity
  8
DV3_Default
  6
Continuous
 62
     7
 48
25.4
100
AcDbLine
 10
408.7011845421
 20
142.7892239438
 30
0.0
 11
268.7011845421
 21
142.7892239438
 31
0.0
  0
LINE
  5
268
330
264
100
AcDbEntity
  8
DV3_Default
  6
Continuous
 62
     7
 48
25.4
100
AcDbLine
 10
408.7011845421
 20
142.7892239438
 30
0.0
 11
408.7011845421
 21
35.6892239438
 31
0.0
  0
LINE
  5
269
330
264
100
AcDbEntity
  8
DV3_Default
  6
Continuous
 62
     7
 48
25.4
100
AcDbLine
 10
408.7011845421
 20
35.6892239438
 30
0.0
 11
268.7011845421
 21
35.6892239438
 31
0.0
  0
LINE
  5
26A
330
264
100
AcDbEntity
  8
DV3_Default
  6
Continuous
 62
     7
 48
25.4
100
AcDbLine
 10
268.7011845421
 20
35.6892239438
 30
0.0
 11
268.7011845421
 21
142.7892239438
 31
0.0
  0
TEXT
  5
26B
330
264
100
AcDbEntity
  8
DV3_Default
  6
Continuous
 62
     7
 48
25.4
100
AcDbText
 10
267.061160075
 20
29.9337626478
 30
0.0
 40
3.5
  1
0
  7
SEACAD_arial_ttf
 11
267.061160075
 21
33.4337626478
 31
0.0
100
AcDbText
 73
     3
  0
TEXT
  5
26C
330
264
100
AcDbEntity
  8
DV3_Default
  6
Continuous
 62
     7
 48
25.4
100
AcDbText
 10
291.1399989357
 20
29.9424430595
 30
0.0
 40
3.5
  1
1000
  7
SEACAD_arial_ttf
 11
291.1399989357
 21
33.4424430595
 31
0.0
100
AcDbText
 73
     3
  0
TEXT
  5
26D
330
264
100
AcDbEntity
  8
DV3_Default
  6
Continuous
 62
     7
 48
25.4
100
AcDbText
 10
319.4386390938
 20
29.9682281708
 30
0.0
 40
3.5
  1
2000
  7
SEACAD_arial_ttf
 11
319.4386390938
 21
33.4682281708
 31
0.0
100
AcDbText
 73
     3
  0
TEXT
  5
26E
330
264
100
AcDbEntity
  8
DV3_Default
  6
Continuous
 62
     7
 48
25.4
100
AcDbText
 10
346.9786138587
 20
29.985009804
 30
0.0
 40
3.5
  1
3000
  7
SEACAD_arial_ttf
 11
346.9786138587
 21
33.485009804
 31
0.0
100
AcDbText
 73
     3
  0
TEXT
  5
26F
330
264
100
AcDbEntity
  8
DV3_Default
  6
Continuous
 62
     7
 48
25.4
100
AcDbText
 10
375.3940643568
 20
29.9892450505
 30
0.0
 40
3.5
  1
4000
  7
SEACAD_arial_ttf
 11
375.3940643568
 21
33.4892450505
 31
0.0
100
AcDbText
 73
     3
  0
TEXT
  5
270
330
264
100
AcDbEntity
  8
DV3_Default
  6
Continuous
 62
     7
 48
25.4
100
AcDbText
 10
403.1390915484
 20
29.981331189
 30
0.0
 40
3.5
  1
5000
  7
SEACAD_arial_ttf
 11
403.1390915484
 21
33.481331189
 31
0.0
100
AcDbText
 73
     3
  0
TEXT
  5
271
330
264
100
AcDbEntity
  8
DV3_Default
  6
Continuous
 62
     7
 48
25.4
100
AcDbText
 10
264.4239457995
 20
49.1973285174
 30
0.0
 40
3.5
  1
5
  7
SEACAD_arial_ttf
 11
264.4239457995
 21
52.6973285174
 31
0.0
100
AcDbText
 73
     3
  0
TEXT
  5
272
330
264
100
AcDbEntity
  8
DV3_Default
  6
Continuous
 62
     7
 48
25.4
100
AcDbText
 10
261.676049024
 20
64.9130759842
 30
0.0
 40
3.5
  1
10
  7
SEACAD_arial_ttf
 11
261.676049024
 21
68.4130759842
 31
0.0
100
AcDbText
 73
     3
  0
TEXT
  5
273
330
264
100
AcDbEntity
  8
DV3_Default
  6
Continuous
 62
     7
 48
25.4
100
AcDbText
 10
261.6811032465
 20
79.9284000291
 30
0.0
 40
3.5
  1
15
  7
SEACAD_arial_ttf
 11
261.6811032465
 21
83.4284000291
 31
0.0
100
AcDbText
 73
     3
  0
TEXT
  5
274
330
264
100
AcDbEntity
  8
DV3_Default
  6
Continuous
 62
     7
 48
25.4
100
AcDbText
 10
261.6519256293
 20
110.668837607
 30
0.0
 40
3.5
  1
25
  7
SEACAD_arial_ttf
 11
261.6519256293
 21
114.168837607
 31
0.0
100
AcDbText
 73
     3
  0
TEXT
  5
275
330
264
100
AcDbEntity
  8
DV3_Default
  6
Continuous
 62
     7
 48
25.4
100
AcDbText
 10
261.5983204386
 20
95.2342069322
 30
0.0
 40
3.5
  1
20
  7
SEACAD_arial_ttf
 11
261.5983204386
 21
98.7342069322
 31
0.0
100
AcDbText
 73
     3
  0
TEXT
  5
276
330
264
100
AcDbEntity
  8
DV3_Default
  6
Continuous
 62
     7
 48
25.4
100
AcDbText
 10
261.635124611
 20
125.8519833948
 30
0.0
 40
3.5
  1
30
  7
SEACAD_arial_ttf
 11
261.635124611
 21
129.3519833948
 31
0.0
100
AcDbText
 73
     3
  0
TEXT
  5
277
330
264
100
AcDbEntity
  8
DV3_Default
  6
Continuous
 62
     7
 48
25.4
100
AcDbText
 10
326.2568565771
 20
129.3618059004
 30
0.0
 40
4.2
  1
Input Force
  7
SEACAD_arial_ttf
 11
326.2568565771
 21
133.5618059004
 31
0.0
100
AcDbText
 73
     3
  0
TEXT
  5
278
330
264
100
AcDbEntity
  8
DV3_Default
  6
Continuous
 62
     7
 48
25.4
100
AcDbText
 10
331.2639604355
 20
104.4745918845
 30
0.0
 40
3.5
  1
24KN
  7
SEACAD_arial_ttf
 11
331.2639604355
 21
107.9745918845
 31
0.0
100
AcDbText
 73
     3
  0
TEXT
  5
279
330
264
100
AcDbEntity
  8
DV3_Default
  6
Continuous
 62
     7
 48
25.4
100
AcDbText
 10
331.2672291597
 20
90.0107107317
 30
0.0
 40
3.5
  1
20KN
  7
SEACAD_arial_ttf
 11
331.2672291597
 21
93.5107107317
 31
0.0
100
AcDbText
 73
     3
  0
TEXT
  5
27A
330
264
100
AcDbEntity
  8
DV3_Default
  6
Continuous
 62
     7
 48
25.4
100
AcDbText
 10
330.942795914
 20
75.2742280425
 30
0.0
 40
3.5
  1
16KN
  7
SEACAD_arial_ttf
 11
330.942795914
 21
78.7742280425
 31
0.0
100
AcDbText
 73
     3
  0
TEXT
  5
27B
330
264
100
AcDbEntity
  8
DV3_Default
  6
Continuous
 62
     7
 48
25.4
100
AcDbText
 10
326.2168796196
 20
16.7428717654
 30
0.0
 40
4.2
  1
Speed in min
  7
SEACAD_arial_ttf
 11
326.2168796196
 21
20.9428717654
 31
0.0
100
AcDbText
 73
     3
  0
TEXT
  5
27C
330
264
100
AcDbEntity
  8
DV3_Default
  6
Continuous
 62
     7
 48
25.4
100
AcDbText
 10
360.7299230978
 20
16.7428717654
 30
0.0
 40
2.2225
  1
-
  7
SEACAD_arial_ttf
 11
360.7299230978
 21
18.9653717654
 31
0.0
100
AcDbText
 73
     3
  0
TEXT
  5
27D
330
264
100
AcDbEntity
  8
DV3_Default
  6
Continuous
 62
     7
 48
25.4
100
AcDbText
 10
361.7445426631
 20
16.7428717654
 30
0.0
 40
3.2102777778
  1
¹
  7
SEACAD_arial_ttf
 11
361.7445426631
 21
19.9531495431
 31
0.0
100
AcDbText
 73
     3
  0
TEXT
  5
27E
330
264
100
AcDbEntity
  8
DV3_Default
  6
Continuous
 62
     7
 48
25.4
100
AcDbText
 10
221.5322949872
 20
95.483483113
 30
0.0
 40
4.2
  1
Total Gripping 
  7
SEACAD_arial_ttf
 11
221.5322949872
 21
99.683483113
 31
0.0
100
AcDbText
 73
     3
  0
TEXT
  5
27F
330
264
100
AcDbEntity
  8
DV3_Default
  6
Continuous
 62
     7
 48
25.4
100
AcDbText
 10
221.5322949872
 20
88.9095700695
 30
0.0
 40
4.2
  1
Force in kN
  7
SEACAD_arial_ttf
 11
221.5322949872
 21
93.1095700695
 31
0.0
100
AcDbText
 73
     3
  0
TEXT
  5
280
330
264
100
AcDbEntity
  8
DV3_Default
  6
Continuous
 62
     7
 48
25.4
100
AcDbText
 10
282.282004275
 20
162.9754732663
 30
0.0
 40
4.2
  1
Gripping Characteristic Graph For BL-206A5
  7
SEACAD_arial_ttf
 11
282.282004275
 21
167.1754732663
 31
0.0
100
AcDbText
 73
     3
  0
LWPOLYLINE
  5
281
330
264
100
AcDbEntity
  8
DV3_Default
  6
Continuous
 62
     7
 48
25.4
100
AcDbPolyline
 90
        2
 70
     0
 43
0.0
 10
410.9212187525
 20
44.332755066
 10
375.5250184129
 20
58.5181324651
  0
HATCH
  5
282
330
264
100
AcDbEntity
  8
DV3_Default
  6
Continuous
 62
     7
 48
25.4
100
AcDbHatch
 10
0.0
 20
0.0
 30
0.0
210
0.0
220
0.0
230
1.0
  2
SOLID
 70
     1
 71
     0
 91
        1
 92
        1
 93
        3
 72
     1
 10
379.6839972276641
 20
57.60550136040088
 11
375.5250184128738
 21
58.51813246512487
 72
     1
 10
375.5250184128738
 20
58.51813246512487
 11
379.1631990956028
 21
56.30597477748099
 72
     1
 10
379.1631990956027
 20
56.30597477748099
 11
379.6839972276641
 21
57.60550136040088
 97
        0
 75
     0
 76
     1
 98
        0
  0
LWPOLYLINE
  5
283
330
264
100
AcDbEntity
  8
DV3_Default
  6
Continuous
 62
     7
 48
25.4
370
    20
100
AcDbPolyline
 90
        4
 70
     1
 43
0.00025
 10
379.6839972277
 20
57.6055013604
 10
375.5250184129
 20
58.5181324651
 10
379.1631990956
 20
56.3059747775
 10
379.6839972277
 20
57.6055013604
  0
LINE
  5
284
330
264
100
AcDbEntity
  8
DV3_Default
  6
Continuous
 62
     7
 48
25.4
100
AcDbLine
 10
410.9212187525
 20
44.332755066
 30
0.0
 11
463.8777404916
 21
44.332755066
 31
0.0
  0
TEXT
  5
285
330
264
100
AcDbEntity
  8
DV3_Default
  6
Continuous
 62
     7
 48
25.4
100
AcDbText
 10
410.9212187525
 20
45.382755066
 30
0.0
 40
4.2
  1
Gripping Force Limit
  7
SEACAD_arial_ttf
 11
410.9212187525
 21
49.582755066
 31
0.0
100
AcDbText
 73
     3
  0
TEXT
  5
286
330
264
100
AcDbEntity
  8
DV3_Default
  6
Continuous
 62
     7
 48
25.4
100
AcDbText
 10
18.2483218434
 20
144.4580378828
 30
0.0
 40
3.5
  1
SPINDLE NOSE SIZE
  7
SEACAD_arial_ttf
 11
18.2483218434
 21
147.9580378828
 31
0.0
100
AcDbText
 73
     3
  0
TEXT
  5
287
330
264
100
AcDbEntity
  8
DV3_Default
  6
Continuous
 62
     7
 48
25.4
100
AcDbText
 10
123.9335121574
 20
144.4580378828
 30
0.0
 40
3.5
  1
A2-5
  7
SEACAD_arial_ttf
 11
123.9335121574
 21
147.9580378828
 31
0.0
100
AcDbText
 73
     3
  0
TEXT
  5
288
330
264
100
AcDbEntity
  8
DV3_Default
  6
Continuous
 62
     7
 48
25.4
100
AcDbText
 10
18.3938938761
 20
68.9834290284
 30
0.0
 40
3.5
  1
TOTAL GRIPPING FORCE AT MAX. SPEED
  7
SEACAD_arial_ttf
 11
18.3938938761
 21
72.4834290284
 31
0.0
100
AcDbText
 73
     3
  0
TEXT
  5
289
330
264
100
AcDbEntity
  8
DV3_Default
  6
Continuous
 62
     7
 48
25.4
100
AcDbText
 10
123.694369777
 20
18.2801299731
 30
0.0
 40
3.5
  1
SB06L1A
  7
SEACAD_arial_ttf
 11
123.694369777
 21
21.7801299731
 31
0.0
100
AcDbText
 73
     3
  0
LINE
  5
28A
330
264
100
AcDbEntity
  8
DV3_Default
  6
Continuous
 62
     7
 48
25.4
100
AcDbLine
 10
16.3931057711
 20
24.4157225392
 30
0.0
 11
184.3931057711
 21
24.4157225392
 31
0.0
  0
LINE
  5
28B
330
264
100
AcDbEntity
  8
DV3_Default
  6
Continuous
 62
     7
 48
25.4
100
AcDbLine
 10
184.3931057711
 20
150.4157225392
 30
0.0
 11
16.3931057711
 21
150.4157225392
 31
0.0
  0
LINE
  5
28C
330
264
100
AcDbEntity
  8
DV3_Default
  6
Continuous
 62
     7
 48
25.4
100
AcDbLine
 10
16.3931057711
 20
142.0157225392
 30
0.0
 11
184.3931057711
 21
142.0157225392
 31
0.0
  0
LINE
  5
28D
330
264
100
AcDbEntity
  8
DV3_Default
  6
Continuous
 62
     7
 48
25.4
100
AcDbLine
 10
184.3931057711
 20
133.6157225392
 30
0.0
 11
16.3931057711
 21
133.6157225392
 31
0.0
  0
LINE
  5
28E
330
264
100
AcDbEntity
  8
DV3_Default
  6
Continuous
 62
     7
 48
25.4
100
AcDbLine
 10
16.3931057711
 20
125.2157225392
 30
0.0
 11
184.3931057711
 21
125.2157225392
 31
0.0
  0
LINE
  5
28F
330
264
100
AcDbEntity
  8
DV3_Default
  6
Continuous
 62
     7
 48
25.4
100
AcDbLine
 10
184.3931057711
 20
116.8157225392
 30
0.0
 11
16.3931057711
 21
116.8157225392
 31
0.0
  0
LINE
  5
290
330
264
100
AcDbEntity
  8
DV3_Default
  6
Continuous
 62
     7
 48
25.4
100
AcDbLine
 10
16.3931057711
 20
108.4157225392
 30
0.0
 11
184.3931057711
 21
108.4157225392
 31
0.0
  0
LINE
  5
291
330
264
100
AcDbEntity
  8
DV3_Default
  6
Continuous
 62
     7
 48
25.4
100
AcDbLine
 10
184.3931057711
 20
100.0157225392
 30
0.0
 11
16.3931057711
 21
100.0157225392
 31
0.0
  0
LINE
  5
292
330
264
100
AcDbEntity
  8
DV3_Default
  6
Continuous
 62
     7
 48
25.4
100
AcDbLine
 10
16.3931057711
 20
91.6157225392
 30
0.0
 11
184.3931057711
 21
91.6157225392
 31
0.0
  0
LINE
  5
293
330
264
100
AcDbEntity
  8
DV3_Default
  6
Continuous
 62
     7
 48
25.4
100
AcDbLine
 10
184.3931057711
 20
83.2157225392
 30
0.0
 11
16.3931057711
 21
83.2157225392
 31
0.0
  0
LINE
  5
294
330
264
100
AcDbEntity
  8
DV3_Default
  6
Continuous
 62
     7
 48
25.4
100
AcDbLine
 10
16.3931057711
 20
74.8157225392
 30
0.0
 11
184.3931057711
 21
74.8157225392
 31
0.0
  0
LINE
  5
295
330
264
100
AcDbEntity
  8
DV3_Default
  6
Continuous
 62
     7
 48
25.4
100
AcDbLine
 10
184.3931057711
 20
66.4157225392
 30
0.0
 11
16.3931057711
 21
66.4157225392
 31
0.0
  0
LINE
  5
296
330
264
100
AcDbEntity
  8
DV3_Default
  6
Continuous
 62
     7
 48
25.4
100
AcDbLine
 10
16.3931057711
 20
58.0157225392
 30
0.0
 11
184.3931057711
 21
58.0157225392
 31
0.0
  0
LINE
  5
297
330
264
100
AcDbEntity
  8
DV3_Default
  6
Continuous
 62
     7
 48
25.4
100
AcDbLine
 10
184.3931057711
 20
49.6157225392
 30
0.0
 11
16.3931057711
 21
49.6157225392
 31
0.0
  0
LINE
  5
298
330
264
100
AcDbEntity
  8
DV3_Default
  6
Continuous
 62
     7
 48
25.4
100
AcDbLine
 10
16.3931057711
 20
41.2157225392
 30
0.0
 11
184.3931057711
 21
41.2157225392
 31
0.0
  0
LINE
  5
299
330
264
100
AcDbEntity
  8
DV3_Default
  6
Continuous
 62
     7
 48
25.4
100
AcDbLine
 10
184.3931057711
 20
32.8157225392
 30
0.0
 11
16.3931057711
 21
32.8157225392
 31
0.0
  0
TEXT
  5
29A
330
264
100
AcDbEntity
  8
DV3_Default
  6
Continuous
 62
     7
 48
25.4
100
AcDbText
 10
72.1417340468
 20
164.1297440859
 30
0.0
 40
4.2
  1
Specifications
  7
SEACAD_arial_ttf
 11
72.1417340468
 21
168.3297440859
 31
0.0
100
AcDbText
 73
     3
  0
TEXT
  5
29B
330
264
100
AcDbEntity
  8
DV3_Default
  6
Continuous
 62
     7
 48
25.4
100
AcDbText
 10
18.3838583707
 20
136.2026248943
 30
0.0
 40
3.5
  1
THROUGH HOLE
  7
SEACAD_arial_ttf
 11
18.3838583707
 21
139.7026248943
 31
0.0
100
AcDbText
 73
     3
  0
TEXT
  5
29C
330
264
100
AcDbEntity
  8
DV3_Default
  6
Continuous
 62
     7
 48
25.4
100
AcDbText
 10
123.810358817
 20
135.7392502248
 30
0.0
 40
3.5
  1
28mm
  7
SEACAD_arial_ttf
 11
123.810358817
 21
139.2392502248
 31
0.0
100
AcDbText
 73
     3
  0
TEXT
  5
29D
330
264
100
AcDbEntity
  8
DV3_Default
  6
Continuous
 62
     7
 48
25.4
100
AcDbText
 10
18.1281459272
 20
127.5258796984
 30
0.0
 40
3.5
  1
MAX. GRIPPING RANGE
  7
SEACAD_arial_ttf
 11
18.1281459272
 21
131.0258796984
 31
0.0
100
AcDbText
 73
     3
  0
TEXT
  5
29E
330
264
100
AcDbEntity
  8
DV3_Default
  6
Continuous
 62
     7
 48
25.4
100
AcDbText
 10
18.1235990215
 20
119.2662256991
 30
0.0
 40
3.5
  1
MIN. GRIPPING RANGE
  7
SEACAD_arial_ttf
 11
18.1235990215
 21
122.7662256991
 31
0.0
100
AcDbText
 73
     3
  0
TEXT
  5
29F
330
264
100
AcDbEntity
  8
DV3_Default
  6
Continuous
 62
     7
 48
25.4
100
AcDbText
 10
18.2789611021
 20
110.9384985262
 30
0.0
 40
3.5
  1
JAW STROKE
  7
SEACAD_arial_ttf
 11
18.2789611021
 21
114.4384985262
 31
0.0
100
AcDbText
 73
     3
  0
TEXT
  5
2A0
330
264
100
AcDbEntity
  8
DV3_Default
  6
Continuous
 62
     7
 48
25.4
100
AcDbText
 10
18.0550117925
 20
102.4801276233
 30
0.0
 40
3.5
  1
PLUNGER STROKE
  7
SEACAD_arial_ttf
 11
18.0550117925
 21
105.9801276233
 31
0.0
100
AcDbText
 73
     3
  0
TEXT
  5
2A1
330
264
100
AcDbEntity
  8
DV3_Default
  6
Continuous
 62
     7
 48
25.4
100
AcDbText
 10
18.2123576955
 20
94.0424422208
 30
0.0
 40
3.5
  1
MAX. DRAW BAR PULL FORCE
  7
SEACAD_arial_ttf
 11
18.2123576955
 21
97.5424422208
 31
0.0
100
AcDbText
 73
     3
  0
TEXT
  5
2A2
330
264
100
AcDbEntity
  8
DV3_Default
  6
Continuous
 62
     7
 48
25.4
100
AcDbText
 10
18.1281459272
 20
85.6002099126
 30
0.0
 40
3.5
  1
MAX. GRIPPING FORCE
  7
SEACAD_arial_ttf
 11
18.1281459272
 21
89.1002099126
 31
0.0
100
AcDbText
 73
     3
  0
TEXT
  5
2A3
330
264
100
AcDbEntity
  8
DV3_Default
  6
Continuous
 62
     7
 48
25.4
100
AcDbText
 10
18.0187017529
 20
77.288107279
 30
0.0
 40
3.5
  1
MAX. SPEED
  7
SEACAD_arial_ttf
 11
18.0187017529
 21
80.788107279
 31
0.0
100
AcDbText
 73
     3
  0
TEXT
  5
2A4
330
264
100
AcDbEntity
  8
DV3_Default
  6
Continuous
 62
     7
 48
25.4
100
AcDbText
 10
18.1649700222
 20
60.3355694891
 30
0.0
 40
3.5
  1
NET WEIGHT WITH SOFT TOP JAWS
  7
SEACAD_arial_ttf
 11
18.1649700222
 21
63.8355694891
 31
0.0
100
AcDbText
 73
     3
  0
TEXT
  5
2A5
330
264
100
AcDbEntity
  8
DV3_Default
  6
Continuous
 62
     7
 48
25.4
100
AcDbText
 10
18.1649700222
 20
51.6588242931
 30
0.0
 40
3.5
  1
MOMENT OF INERTIA
  7
SEACAD_arial_ttf
 11
18.1649700222
 21
55.1588242931
 31
0.0
100
AcDbText
 73
     3
  0
TEXT
  5
2A6
330
264
100
AcDbEntity
  8
DV3_Default
  6
Continuous
 62
     7
 48
25.4
100
AcDbText
 10
18.1241130769
 20
43.7476742615
 30
0.0
 40
3.5
  1
MATCHING CYLINDER
  7
SEACAD_arial_ttf
 11
18.1241130769
 21
47.2476742615
 31
0.0
100
AcDbText
 73
     3
  0
TEXT
  5
2A7
330
264
100
AcDbEntity
  8
DV3_Default
  6
Continuous
 62
     7
 48
25.4
100
AcDbText
 10
18.1241130769
 20
35.2535073744
 30
0.0
 40
3.5
  1
MAX. PRESSURE
  7
SEACAD_arial_ttf
 11
18.1241130769
 21
38.7535073744
 31
0.0
100
AcDbText
 73
     3
  0
TEXT
  5
2A8
330
264
100
AcDbEntity
  8
DV3_Default
  6
Continuous
 62
     7
 48
25.4
100
AcDbText
 10
18.0923499429
 20
26.9045806458
 30
0.0
 40
3.5
  1
MATCHING HARD TOP JAW
  7
SEACAD_arial_ttf
 11
18.0923499429
 21
30.4045806458
 31
0.0
100
AcDbText
 73
     3
  0
TEXT
  5
2A9
330
264
100
AcDbEntity
  8
DV3_Default
  6
Continuous
 62
     7
 48
25.4
100
AcDbText
 10
18.0923499429
 20
18.7382322261
 30
0.0
 40
3.5
  1
MATCHING SOFT TOP JAW
  7
SEACAD_arial_ttf
 11
18.0923499429
 21
22.2382322261
 31
0.0
100
AcDbText
 73
     3
  0
LINE
  5
2AA
330
264
100
AcDbEntity
  8
DV3_Default
  6
Continuous
 62
     7
 48
25.4
100
AcDbLine
 10
16.3931057711
 20
16.0157225392
 30
0.0
 11
184.3931057711
 21
16.0157225392
 31
0.0
  0
LINE
  5
2AB
330
264
100
AcDbEntity
  8
DV3_Default
  6
Continuous
 62
     7
 48
25.4
100
AcDbLine
 10
121.2651188213
 20
150.4157225392
 30
0.0
 11
121.2651188213
 21
16.0157225392
 31
0.0
  0
LINE
  5
2AC
330
264
100
AcDbEntity
  8
DV3_Default
  6
Continuous
 62
     7
 48
25.4
100
AcDbLine
 10
16.3931057711
 20
150.4157225392
 30
0.0
 11
16.3931057711
 21
16.0157225392
 31
0.0
  0
LINE
  5
2AD
330
264
100
AcDbEntity
  8
DV3_Default
  6
Continuous
 62
     7
 48
25.4
100
AcDbLine
 10
184.3931057711
 20
150.4157225392
 30
0.0
 11
184.3931057711
 21
16.0157225392
 31
0.0
  0
TEXT
  5
2AE
330
264
100
AcDbEntity
  8
DV3_Default
  6
Continuous
 62
     7
 48
25.4
100
AcDbText
 10
123.4104882121
 20
127.7598434734
 30
0.0
 40
3.5
  1
165mm
  7
SEACAD_arial_ttf
 11
123.4104882121
 21
131.2598434734
 31
0.0
100
AcDbText
 73
     3
  0
TEXT
  5
2AF
330
264
100
AcDbEntity
  8
DV3_Default
  6
Continuous
 62
     7
 48
25.4
100
AcDbText
 10
123.781921958
 20
119.3238473435
 30
0.0
 40
3.5
  1
28mm
  7
SEACAD_arial_ttf
 11
123.781921958
 21
122.8238473435
 31
0.0
100
AcDbText
 73
     3
  0
TEXT
  5
2B0
330
264
100
AcDbEntity
  8
DV3_Default
  6
Continuous
 62
     7
 48
25.4
100
AcDbText
 10
123.8274643873
 20
110.943786099
 30
0.0
 40
3.5
  1
20mm
  7
SEACAD_arial_ttf
 11
123.8274643873
 21
114.443786099
 31
0.0
100
AcDbText
 73
     3
  0
TEXT
  5
2B1
330
264
100
AcDbEntity
  8
DV3_Default
  6
Continuous
 62
     7
 48
25.4
100
AcDbText
 10
123.4429173152
 20
102.4648620234
 30
0.0
 40
3.5
  1
15mm
  7
SEACAD_arial_ttf
 11
123.4429173152
 21
105.9648620234
 31
0.0
100
AcDbText
 73
     3
  0
TEXT
  5
2B2
330
264
100
AcDbEntity
  8
DV3_Default
  6
Continuous
 62
     7
 48
25.4
100
AcDbText
 10
123.7429463745
 20
93.9059833776
 30
0.0
 40
3.5
  1
27.9kN
  7
SEACAD_arial_ttf
 11
123.7429463745
 21
97.4059833776
 31
0.0
100
AcDbText
 73
     3
  0
TEXT
  5
2B3
330
264
100
AcDbEntity
  8
DV3_Default
  6
Continuous
 62
     7
 48
25.4
100
AcDbText
 10
123.6852337946
 20
85.5973658084
 30
0.0
 40
3.5
  1
31.2kN
  7
SEACAD_arial_ttf
 11
123.6852337946
 21
89.0973658084
 31
0.0
100
AcDbText
 73
     3
  0
TEXT
  5
2B4
330
264
100
AcDbEntity
  8
DV3_Default
  6
Continuous
 62
     7
 48
25.4
100
AcDbText
 10
123.895483128
 20
77.2269659079
 30
0.0
 40
3.5
  1
4500min-
  7
SEACAD_arial_ttf
 11
123.895483128
 21
80.7269659079
 31
0.0
100
AcDbText
 73
     3
  0
TEXT
  5
2B5
330
264
100
AcDbEntity
  8
DV3_Default
  6
Continuous
 62
     7
 48
25.4
100
AcDbText
 10
144.4389613889
 20
77.2269659079
 30
0.0
 40
3.2102777778
  1
¹
  7
SEACAD_arial_ttf
 11
144.4389613889
 21
80.4372436857
 31
0.0
100
AcDbText
 73
     3
  0
TEXT
  5
2B6
330
264
100
AcDbEntity
  8
DV3_Default
  6
Continuous
 62
     7
 48
25.4
100
AcDbText
 10
123.4431542419
 20
69.0139451761
 30
0.0
 40
3.5
  1
10.4kN
  7
SEACAD_arial_ttf
 11
123.4431542419
 21
72.5139451761
 31
0.0
100
AcDbText
 73
     3
  0
TEXT
  5
2B7
330
264
100
AcDbEntity
  8
DV3_Default
  6
Continuous
 62
     7
 48
25.4
100
AcDbText
 10
123.4697685846
 20
60.4469274417
 30
0.0
 40
3.5
  1
15.2kg
  7
SEACAD_arial_ttf
 11
123.4697685846
 21
63.9469274417
 31
0.0
100
AcDbText
 73
     3
  0
TEXT
  5
2B8
330
264
100
AcDbEntity
  8
DV3_Default
  6
Continuous
 62
     7
 48
25.4
100
AcDbText
 10
123.7377183016
 20
51.9928265249
 30
0.0
 40
3.5
  1
0.048kg.m
  7
SEACAD_arial_ttf
 11
123.7377183016
 21
55.4928265249
 31
0.0
100
AcDbText
 73
     3
  0
TEXT
  5
2B9
330
264
100
AcDbEntity
  8
DV3_Default
  6
Continuous
 62
     7
 48
25.4
100
AcDbText
 10
146.8681530842
 20
51.9928265249
 30
0.0
 40
3.2102777778
  1
²
  7
SEACAD_arial_ttf
 11
146.8681530842
 21
55.2031043027
 31
0.0
100
AcDbText
 73
     3
  0
TEXT
  5
2BA
330
264
100
AcDbEntity
  8
DV3_Default
  6
Continuous
 62
     7
 48
25.4
100
AcDbText
 10
123.7062740802
 20
43.5625682774
 30
0.0
 40
3.5
  1
S1246
  7
SEACAD_arial_ttf
 11
123.7062740802
 21
47.0625682774
 31
0.0
100
AcDbText
 73
     3
  0
TEXT
  5
2BB
330
264
100
AcDbEntity
  8
DV3_Default
  6
Continuous
 62
     7
 48
25.4
100
AcDbText
 10
123.6685271526
 20
34.9343316042
 30
0.0
 40
3.5
  1
3.40MPa
  7
SEACAD_arial_ttf
 11
123.6685271526
 21
38.4343316042
 31
0.0
100
AcDbText
 73
     3
  0
TEXT
  5
2BC
330
264
100
AcDbEntity
  8
DV3_Default
  6
Continuous
 62
     7
 48
25.4
100
AcDbText
 10
123.5328393421
 20
26.9439909835
 30
0.0
 40
3.5
  1
HB06B1
  7
SEACAD_arial_ttf
 11
123.5328393421
 21
30.4439909835
 31
0.0
100
AcDbText
 73
     3
  0
LINE
  5
2BD
330
264
100
AcDbEntity
  8
DV3_Default
  6
Continuous
 62
     7
 48
25.4
100
AcDbLine
 10
221.5420071099
 20
143.3202340006
 30
0.0
 11
221.5420071099
 21
147.5202340006
 31
0.0
  0
LINE
  5
2BE
330
264
100
AcDbEntity
  8
DV3_Default
  6
Continuous
 62
     7
 48
25.4
100
AcDbLine
 10
221.5420071099
 20
143.3202340006
 30
0.0
 11
221.5420071099
 21
139.1202340006
 31
0.0
  0
LINE
  5
2BF
330
264
100
AcDbEntity
  8
DV3_Default
  6
Continuous
 62
     7
 48
25.4
100
AcDbLine
 10
221.5420071099
 20
139.1202340006
 30
0.0
 11
213.8420071099
 21
139.1202340006
 31
0.0
  0
LINE
  5
2C0
330
264
100
AcDbEntity
  8
DV3_Default
  6
Continuous
 62
     7
 48
25.4
100
AcDbLine
 10
213.8420071099
 20
139.1202340006
 30
0.0
 11
213.8420071099
 21
137.5452340006
 31
0.0
  0
LINE
  5
2C1
330
264
100
AcDbEntity
  8
DV3_Default
  6
Continuous
 62
     7
 48
25.4
100
AcDbLine
 10
213.4920071099
 20
137.1952340006
 30
0.0
 11
209.9920071099
 21
137.1952340006
 31
0.0
  0
LINE
  5
2C2
330
264
100
AcDbEntity
  8
DV3_Default
  6
Continuous
 62
     7
 48
25.4
100
AcDbLine
 10
208.5920071099
 20
138.5952340006
 30
0.0
 11
208.5920071099
 21
148.0091328678
 31
0.0
  0
LINE
  5
2C3
330
264
100
AcDbEntity
  8
DV3_Default
  6
Continuous
 62
     7
 48
25.4
100
AcDbLine
 10
213.8420071099
 20
149.0591328678
 30
0.0
 11
213.8420071099
 21
147.5202340006
 31
0.0
  0
LINE
  5
2C4
330
264
100
AcDbEntity
  8
DV3_Default
  6
Continuous
 62
     7
 48
25.4
100
AcDbLine
 10
213.8420071099
 20
147.5202340006
 30
0.0
 11
221.5420071099
 21
147.5202340006
 31
0.0
  0
LINE
  5
2C5
330
264
100
AcDbEntity
  8
DV3_Default
  6
CENTER2
 62
     7
 48
25.4
100
AcDbLine
 10
223.9920071099
 20
143.3202340006
 30
0.0
 11
199.1355239049
 21
143.3202340006
 31
0.0
  0
LINE
  5
2C6
330
264
100
AcDbEntity
  8
DV3_Default
  6
Continuous
 62
     7
 48
25.4
100
AcDbLine
 10
209.9920071099
 20
149.4091328678
 30
0.0
 11
213.4920071099
 21
149.4091328678
 31
0.0
  0
LINE
  5
2C7
330
264
100
AcDbEntity
  8
DV3_Default
  6
Continuous
 62
     7
 48
25.4
100
AcDbLine
 10
208.5920071099
 20
138.5952340006
 30
0.0
 11
209.9920071099
 21
137.1952340006
 31
0.0
  0
LINE
  5
2C8
330
264
100
AcDbEntity
  8
DV3_Default
  6
Continuous
 62
     7
 48
25.4
100
AcDbLine
 10
209.9920071099
 20
149.4091328678
 30
0.0
 11
208.5920071099
 21
148.0091328678
 31
0.0
  0
LINE
  5
2C9
330
264
100
AcDbEntity
  8
DV3_Default
  6
Continuous
 62
     7
 48
25.4
100
AcDbLine
 10
219.4420071099
 20
147.5202340006
 30
0.0
 11
219.4420071099
 21
153.0353970013
 31
0.0
  0
LINE
  5
2CA
330
264
100
AcDbEntity
  8
DV3_Default
  6
Continuous
 62
     7
 48
25.4
100
AcDbLine
 10
217.9571701106
 20
154.5202340006
 30
0.0
 11
209.9920071099
 21
154.5202340006
 31
0.0
  0
LINE
  5
2CB
330
264
100
AcDbEntity
  8
DV3_Default
  6
Continuous
 62
     7
 48
25.4
100
AcDbLine
 10
217.9571701106
 20
154.5202340006
 30
0.0
 11
219.4420071099
 21
153.0353970013
 31
0.0
  0
LINE
  5
2CC
330
264
100
AcDbEntity
  8
DV3_Default
  6
Continuous
 62
     7
 48
25.4
100
AcDbLine
 10
218.6609550609
 20
153.8164490503
 30
0.0
 11
218.6609550609
 21
147.5202340006
 31
0.0
  0
ARC
  5
2CD
330
264
100
AcDbEntity
  8
DV3_Default
  6
Continuous
 62
     7
 48
25.4
100
AcDbCircle
 10
213.4920071099
 20
149.0591328678
 30
0.0
 40
0.35
100
AcDbArc
 50
0.0
 51
90.0
  0
ARC
  5
2CE
330
264
100
AcDbEntity
  8
DV3_Default
  6
Continuous
 62
     7
 48
25.4
100
AcDbCircle
 10
213.4920071099
 20
137.5452340006
 30
0.0
 40
0.35
100
AcDbArc
 50
270.0
 51
360.0
  0
LINE
  5
2CF
330
264
100
AcDbEntity
  8
DV3_Default
  6
Continuous
 62
     7
 48
25.4
100
AcDbLine
 10
213.8420071099
 20
147.5202340006
 30
0.0
 11
213.8420071099
 21
149.3057812809
 31
0.0
  0
LINE
  5
2D0
330
264
100
AcDbEntity
  8
DV3_Default
  6
Continuous
 62
     7
 48
25.4
100
AcDbLine
 10
213.3886555224
 20
149.7591328678
 30
0.0
 11
209.6420071099
 21
149.7591328678
 31
0.0
  0
LINE
  5
2D1
330
264
100
AcDbEntity
  8
DV3_Default
  6
Continuous
 62
     7
 48
25.4
100
AcDbLine
 10
208.2420071099
 20
148.3591328678
 30
0.0
 11
208.2420071099
 21
138.2452340006
 31
0.0
  0
LINE
  5
2D2
330
264
100
AcDbEntity
  8
DV3_Default
  6
Continuous
 62
     7
 48
25.4
100
AcDbLine
 10
209.6420071099
 20
136.8452340006
 30
0.0
 11
213.4920071099
 21
136.8452340006
 31
0.0
  0
LINE
  5
2D3
330
264
100
AcDbEntity
  8
DV3_Default
  6
Continuous
 62
     7
 48
25.4
100
AcDbLine
 10
213.8420071099
 20
137.1952340006
 30
0.0
 11
213.8420071099
 21
139.1202340006
 31
0.0
  0
ARC
  5
2D4
330
264
100
AcDbEntity
  8
DV3_Default
  6
Continuous
 62
     7
 48
25.4
100
AcDbCircle
 10
213.3886555224
 20
149.3057812802
 30
0.0
 40
0.4533515875443617
100
AcDbArc
 50
0.0000000885
 51
90.0
  0
ARC
  5
2D5
330
264
100
AcDbEntity
  8
DV3_Default
  6
Continuous
 62
     7
 48
25.4
100
AcDbCircle
 10
213.4920071099
 20
137.1952340006
 30
0.0
 40
0.35
100
AcDbArc
 50
270.0
 51
360.0
  0
LINE
  5
2D6
330
264
100
AcDbEntity
  8
DV3_Default
  6
Continuous
 62
     7
 48
25.4
100
AcDbLine
 10
208.2420071099
 20
148.3591328678
 30
0.0
 11
209.6420071099
 21
149.7591328678
 31
0.0
  0
LINE
  5
2D7
330
264
100
AcDbEntity
  8
DV3_Default
  6
Continuous
 62
     7
 48
25.4
100
AcDbLine
 10
209.6420071099
 20
136.8452340006
 30
0.0
 11
208.2420071099
 21
138.2452340006
 31
0.0
  0
LINE
  5
2D8
330
264
100
AcDbEntity
  8
DV3_Default
  6
Continuous
 62
     7
 48
25.4
100
AcDbLine
 10
219.4420071099
 20
139.1202340006
 30
0.0
 11
219.4420071099
 21
133.5202340006
 31
0.0
  0
LINE
  5
2D9
330
264
100
AcDbEntity
  8
DV3_Default
  6
Continuous
 62
     7
 48
25.4
100
AcDbLine
 10
218.0420071099
 20
132.1202340006
 30
0.0
 11
209.9920071099
 21
132.1202340006
 31
0.0
  0
LINE
  5
2DA
330
264
100
AcDbEntity
  8
DV3_Default
  6
Continuous
 62
     7
 48
25.4
100
AcDbLine
 10
219.4420071099
 20
133.5202340006
 30
0.0
 11
218.0420071099
 21
132.1202340006
 31
0.0
  0
LINE
  5
2DB
330
264
100
AcDbEntity
  8
DV3_Default
  6
Continuous
 62
     7
 48
25.4
100
AcDbLine
 10
218.6609550609
 20
139.1202340006
 30
0.0
 11
218.6609550609
 21
132.7391819516
 31
0.0
  0
LINE
  5
2DC
330
264
100
AcDbEntity
  8
DV3_Default
  6
Continuous
 62
     7
 48
25.4
100
AcDbLine
 10
217.9571701106
 20
154.5202340006
 30
0.0
 11
217.9571701106
 21
162.9202340006
 31
0.0
  0
LINE
  5
2DD
330
264
100
AcDbEntity
  8
DV3_Default
  6
Continuous
 62
     7
 48
25.4
100
AcDbLine
 10
218.0420071099
 20
132.1202340006
 30
0.0
 11
218.0420071099
 21
123.7202340006
 31
0.0
  0
LINE
  5
2DE
330
264
100
AcDbEntity
  8
DV3_Default
  6
Continuous
 62
     7
 48
25.4
100
AcDbLine
 10
296.7011845421
 20
35.6892239438
 30
0.0
 11
296.7011845421
 21
142.7892239438
 31
0.0
  0
LINE
  5
2DF
330
264
100
AcDbEntity
  8
DV3_Default
  6
Continuous
 62
     7
 48
25.4
100
AcDbLine
 10
324.7011845421
 20
142.7892239438
 30
0.0
 11
324.7011845421
 21
35.6892239438
 31
0.0
  0
LINE
  5
2E0
330
264
100
AcDbEntity
  8
DV3_Default
  6
Continuous
 62
     7
 48
25.4
100
AcDbLine
 10
352.7011845421
 20
35.6892239438
 30
0.0
 11
352.7011845421
 21
142.7892239438
 31
0.0
  0
LINE
  5
2E1
330
264
100
AcDbEntity
  8
DV3_Default
  6
Continuous
 62
     7
 48
25.4
100
AcDbLine
 10
380.7011845421
 20
142.7892239438
 30
0.0
 11
380.7011845421
 21
35.6892239438
 31
0.0
  0
LINE
  5
2E2
330
264
100
AcDbEntity
  8
DV3_Default
  6
Continuous
 62
     7
 48
25.4
100
AcDbLine
 10
268.7011845421
 20
50.9842239438
 30
0.0
 11
408.7011845421
 21
50.9842239438
 31
0.0
  0
LINE
  5
2E3
330
264
100
AcDbEntity
  8
DV3_Default
  6
Continuous
 62
     7
 48
25.4
100
AcDbLine
 10
408.7011845421
 20
66.2792239438
 30
0.0
 11
268.7011845421
 21
66.2792239438
 31
0.0
  0
LINE
  5
2E4
330
264
100
AcDbEntity
  8
DV3_Default
  6
Continuous
 62
     7
 48
25.4
100
AcDbLine
 10
268.7011845421
 20
81.5742239438
 30
0.0
 11
408.7011845421
 21
81.5742239438
 31
0.0
  0
LINE
  5
2E5
330
264
100
AcDbEntity
  8
DV3_Default
  6
Continuous
 62
     7
 48
25.4
100
AcDbLine
 10
408.7011845421
 20
96.8692239438
 30
0.0
 11
268.7011845421
 21
96.8692239438
 31
0.0
  0
LINE
  5
2E6
330
264
100
AcDbEntity
  8
DV3_Default
  6
Continuous
 62
     7
 48
25.4
100
AcDbLine
 10
268.7011845421
 20
112.1642239438
 30
0.0
 11
408.7011845421
 21
112.1642239438
 31
0.0
  0
LINE
  5
2E7
330
264
100
AcDbEntity
  8
DV3_Default
  6
Continuous
 62
     7
 48
25.4
100
AcDbLine
 10
408.7011845421
 20
127.4592239438
 30
0.0
 11
268.7011845421
 21
127.4592239438
 31
0.0
  0
TEXT
  5
2E8
330
264
100
AcDbEntity
  8
DV3_Default
  6
Continuous
 62
     7
 48
25.4
100
AcDbText
 10
261.635124611
 20
140.6765526916
 30
0.0
 40
3.5
  1
35
  7
SEACAD_arial_ttf
 11
261.635124611
 21
144.1765526916
 31
0.0
100
AcDbText
 73
     3
  0
ARC
  5
2E9
330
264
100
AcDbEntity
  8
DV3_Default
  6
Continuous
 62
     7
 48
25.4
100
AcDbCircle
 10
266.4316790815
 20
-50.503000868
 30
0.0
 40
141.5783740135751
100
AcDbArc
 50
46.9852313787
 51
89.0815076459
  0
ARC
  5
2EA
330
264
100
AcDbEntity
  8
DV3_Default
  6
Continuous
 62
     7
 48
25.4
100
AcDbCircle
 10
149.1083434826
 20
556.3553232758
 30
0.0
 40
546.9061887022186
100
AcDbArc
 50
293.0242403146
 51
296.7632900887
  0
ARC
  5
2EB
330
264
100
AcDbEntity
  8
DV3_Default
  6
Continuous
 62
     7
 48
25.4
100
AcDbCircle
 10
263.2181172692
 20
-36.4808991118
 30
0.0
 40
168.4979337367878
100
AcDbArc
 50
38.3373323712
 51
88.1352169918
  0
ARC
  5
2EC
330
264
100
AcDbEntity
  8
DV3_Default
  6
Continuous
 62
     7
 48
25.4
100
AcDbCircle
 10
268.1835511347
 20
-36.4468584318
 30
0.0
 40
153.8541863012084
100
AcDbArc
 50
40.3427704528
 51
89.8072313387
  0
ARC
  5
2ED
330
264
100
AcDbEntity
  8
DV3_Default
  6
Continuous
 62
     7
 48
25.4
100
AcDbCircle
 10
265.3369667567
 20
-48.3613103794
 30
0.0
 40
152.7016087644426
100
AcDbArc
 50
44.235176062
 51
88.737596292
  0
TEXT
  5
2EE
330
264
100
AcDbEntity
  8
DV3_Default
  6
Continuous
 62
     7
 48
25.4
100
AcDbText
 10
330.9935543748
 20
118.3928720485
 30
0.0
 40
3.5
  1
27.9KN
  7
SEACAD_arial_ttf
 11
330.9935543748
 21
121.8928720485
 31
0.0
100
AcDbText
 73
     3
  0
ENDBLK
  5
2F0
330
264
100
AcDbEntity
  8
0
100
AcDbBlockEnd
  0
BLOCK
  5
2FB
330
2F1
100
AcDbEntity
  8
0
100
AcDbBlockBegin
  2
GDimGGroup7
 70
     0
 71
     0
 10
0.0
 20
0.0
 30
0.0
  3
GDimGGroup7
  1

  0
HATCH
  5
2F3
330
2F1
100
AcDbEntity
  8
Default
  6
Continuous
 62
     7
 48
25.4
100
AcDbHatch
 10
0.0
 20
0.0
 30
0.0
210
0.0
220
0.0
230
1.0
  2
SOLID
 70
     1
 71
     0
 91
        1
 92
        1
 93
        3
 72
     1
 10
244.6878946754162
 20
136.120234190638
 11
243.354561278753
 21
136.120234190638
 72
     1
 10
243.354561278753
 20
136.120234190638
 11
244.0212279770846
 21
132.1202340006482
 72
     1
 10
244.0212279770846
 20
132.1202340006482
 11
244.6878946754162
 21
136.120234190638
 97
        0
 75
     0
 76
     1
 98
        0
  0
LWPOLYLINE
  5
2F4
330
2F1
100
AcDbEntity
  8
Default
  6
Continuous
 62
     7
 48
25.4
370
    30
100
AcDbPolyline
 90
        4
 70
     1
 43
0.00035
 10
244.6878946754
 20
136.1202341906
 10
244.0212279771
 20
132.1202340006
 10
243.3545612788
 20
136.1202341906
 10
244.6878946754
 20
136.1202341906
  0
HATCH
  5
2F5
330
2F1
100
AcDbEntity
  8
Default
  6
Continuous
 62
     7
 48
25.4
100
AcDbHatch
 10
0.0
 20
0.0
 30
0.0
210
0.0
220
0.0
230
1.0
  2
SOLID
 70
     1
 71
     0
 91
        1
 92
        1
 93
        3
 72
     1
 10
244.6878946754162
 20
150.5202330119562
 11
244.0212279770846
 21
154.520233201946
 72
     1
 10
244.0212279770846
 20
154.520233201946
 11
243.354561278753
 21
150.5202330119562
 72
     1
 10
243.354561278753
 20
150.5202330119562
 11
244.6878946754162
 21
150.5202330119562
 97
        0
 75
     0
 76
     1
 98
        0
  0
LWPOLYLINE
  5
2F6
330
2F1
100
AcDbEntity
  8
Default
  6
Continuous
 62
     7
 48
25.4
370
    30
100
AcDbPolyline
 90
        4
 70
     1
 43
0.00035
 10
244.6878946754
 20
150.520233012
 10
244.0212279771
 20
154.5202332019
 10
243.3545612788
 20
150.520233012
 10
244.6878946754
 20
150.520233012
  0
LINE
  5
2F7
330
2F1
100
AcDbEntity
  8
Default
  6
Continuous
 62
     7
 48
25.4
100
AcDbLine
 10
218.0420071099
 20
132.1202340006
 30
0.0
 11
246.0212280721
 21
132.1202340006
 31
0.0
  0
LINE
  5
2F8
330
2F1
100
AcDbEntity
  8
Default
  6
Continuous
 62
     7
 48
25.4
100
AcDbLine
 10
217.9571701106
 20
154.5202340006
 30
0.0
 11
246.0212280721
 21
154.5202340006
 31
0.0
  0
LINE
  5
2F9
330
2F1
100
AcDbEntity
  8
Default
  6
Continuous
 62
     7
 48
25.4
100
AcDbLine
 10
244.0212279771
 20
132.1202340006
 30
0.0
 11
244.0212279771
 21
154.5202332019
 31
0.0
  0
TEXT
  5
2FA
330
2F1
100
AcDbEntity
  8
Default
  6
Continuous
 62
     7
 48
25.4
100
AcDbText
 10
243.0212279771
 20
140.1897988187
 30
0.0
 40
4.0
  1
32
 50
90.0
  7
SEACAD_arial_ttf
 11
239.0212279771
 21
140.1897988187
 31
0.0
100
AcDbText
 73
     3
  0
ENDBLK
  5
2FC
330
2F1
100
AcDbEntity
  8
0
100
AcDbBlockEnd
  0
BLOCK
  5
308
330
2FD
100
AcDbEntity
  8
0
100
AcDbBlockBegin
  2
GDimGGroup8
 70
     0
 71
     0
 10
0.0
 20
0.0
 30
0.0
  3
GDimGGroup8
  1

  0
HATCH
  5
2FF
330
2FD
100
AcDbEntity
  8
Default
  6
Continuous
 62
     7
 48
25.4
100
AcDbHatch
 10
0.0
 20
0.0
 30
0.0
210
0.0
220
0.0
230
1.0
  2
SOLID
 70
     1
 71
     0
 91
        1
 92
        1
 93
        3
 72
     1
 10
232.9978539410059
 20
135.1202338106585
 11
232.3311872426743
 21
139.1202340006483
 72
     1
 10
232.3311872426743
 20
139.1202340006483
 11
231.6645205443427
 21
135.1202338106585
 72
     1
 10
231.6645205443427
 20
135.1202338106585
 11
232.9978539410059
 21
135.1202338106585
 97
        0
 75
     0
 76
     1
 98
        0
  0
LWPOLYLINE
  5
300
330
2FD
100
AcDbEntity
  8
Default
  6
Continuous
 62
     7
 48
25.4
370
    30
100
AcDbPolyline
 90
        4
 70
     1
 43
0.00035
 10
232.997853941
 20
135.1202338107
 10
232.3311872427
 20
139.1202340006
 10
231.6645205443
 20
135.1202338107
 10
232.997853941
 20
135.1202338107
  0
HATCH
  5
301
330
2FD
100
AcDbEntity
  8
Default
  6
Continuous
 62
     7
 48
25.4
100
AcDbHatch
 10
0.0
 20
0.0
 30
0.0
210
0.0
220
0.0
230
1.0
  2
SOLID
 70
     1
 71
     0
 91
        1
 92
        1
 93
        3
 72
     1
 10
232.9978539410059
 20
151.520234190638
 11
231.6645205443427
 21
151.520234190638
 72
     1
 10
231.6645205443427
 20
151.520234190638
 11
232.3311872426743
 21
147.5202340006482
 72
     1
 10
232.3311872426743
 20
147.5202340006482
 11
232.9978539410059
 21
151.520234190638
 97
        0
 75
     0
 76
     1
 98
        0
  0
LWPOLYLINE
  5
302
330
2FD
100
AcDbEntity
  8
Default
  6
Continuous
 62
     7
 48
25.4
370
    30
100
AcDbPolyline
 90
        4
 70
     1
 43
0.00035
 10
232.997853941
 20
151.5202341906
 10
232.3311872427
 20
147.5202340006
 10
231.6645205443
 20
151.5202341906
 10
232.997853941
 20
151.5202341906
  0
LINE
  5
303
330
2FD
100
AcDbEntity
  8
Default
  6
Continuous
 62
     7
 48
25.4
100
AcDbLine
 10
221.5420070682
 20
139.1202340006
 30
0.0
 11
234.3311873377
 21
139.1202340006
 31
0.0
  0
LINE
  5
304
330
2FD
100
AcDbEntity
  8
Default
  6
Continuous
 62
     7
 48
25.4
100
AcDbLine
 10
221.5420070682
 20
147.5202340006
 30
0.0
 11
234.3311873377
 21
147.5202340006
 31
0.0
  0
LINE
  5
305
330
2FD
100
AcDbEntity
  8
Default
  6
Continuous
 62
     7
 48
25.4
100
AcDbLine
 10
232.3311872427
 20
105.0127202749
 30
0.0
 11
232.3311872427
 21
155.5202340811
 31
0.0
  0
TEXT
  5
306
330
2FD
100
AcDbEntity
  8
Default
  6
Continuous
 62
     7
 48
25.4
100
AcDbText
 10
231.3311872427
 20
106.4127208109
 30
0.0
 40
4.0
  1
12
 50
90.0
  7
SEACAD_arial_ttf
 11
227.3311872427
 21
106.4127208109
 31
0.0
100
AcDbText
 73
     3
  0
TEXT
  5
307
330
2FD
100
AcDbEntity
  8
Default
  6
Continuous
 62
     7
 48
25.4
100
AcDbText
 10
231.3311872427
 20
115.0735903761
 30
0.0
 40
4.0
  1
H8/h8
 50
90.0
  7
SEACAD_arial_ttf
 11
227.3311872427
 21
115.0735903761
 31
0.0
100
AcDbText
 73
     3
  0
ENDBLK
  5
309
330
2FD
100
AcDbEntity
  8
0
100
AcDbBlockEnd
  0
BLOCK
  5
314
330
30A
100
AcDbEntity
  8
0
100
AcDbBlockBegin
  2
GDimGGroup9
 70
     0
 71
     0
 10
0.0
 20
0.0
 30
0.0
  3
GDimGGroup9
  1

  0
HATCH
  5
30C
330
30A
100
AcDbEntity
  8
Default
  6
Continuous
 62
     7
 48
25.4
100
AcDbHatch
 10
0.0
 20
0.0
 30
0.0
210
0.0
220
0.0
230
1.0
  2
SOLID
 70
     1
 71
     0
 91
        1
 92
        1
 93
        3
 72
     1
 10
225.5420072999174
 20
163.7800684092841
 11
221.5420071099276
 21
163.1134017109525
 72
     1
 10
221.5420071099276
 20
163.1134017109525
 11
225.5420072999174
 21
162.4467350126209
 72
     1
 10
225.5420072999174
 20
162.4467350126209
 11
225.5420072999174
 21
163.7800684092841
 97
        0
 75
     0
 76
     1
 98
        0
  0
LWPOLYLINE
  5
30D
330
30A
100
AcDbEntity
  8
Default
  6
Continuous
 62
     7
 48
25.4
370
    30
100
AcDbPolyline
 90
        4
 70
     1
 43
0.00035
 10
225.5420072999
 20
163.7800684093
 10
221.5420071099
 20
163.113401711
 10
225.5420072999
 20
162.4467350126
 10
225.5420072999
 20
163.7800684093
  0
HATCH
  5
30E
330
30A
100
AcDbEntity
  8
Default
  6
Continuous
 62
     7
 48
25.4
100
AcDbHatch
 10
0.0
 20
0.0
 30
0.0
210
0.0
220
0.0
230
1.0
  2
SOLID
 70
     1
 71
     0
 91
        1
 92
        1
 93
        3
 72
     1
 10
215.4420069199378
 20
163.7800684092841
 11
215.4420069199378
 21
162.4467350126209
 72
     1
 10
215.4420069199378
 20
162.4467350126209
 11
219.4420071099276
 21
163.1134017109525
 72
     1
 10
219.4420071099276
 20
163.1134017109525
 11
215.4420069199378
 21
163.7800684092841
 97
        0
 75
     0
 76
     1
 98
        0
  0
LWPOLYLINE
  5
30F
330
30A
100
AcDbEntity
  8
Default
  6
Continuous
 62
     7
 48
25.4
370
    30
100
AcDbPolyline
 90
        4
 70
     1
 43
0.00035
 10
215.4420069199
 20
163.7800684093
 10
219.4420071099
 20
163.113401711
 10
215.4420069199
 20
162.4467350126
 10
215.4420069199
 20
163.7800684093
  0
LINE
  5
310
330
30A
100
AcDbEntity
  8
Default
  6
Continuous
 62
     7
 48
25.4
100
AcDbLine
 10
221.5420071099
 20
147.5202338509
 30
0.0
 11
221.5420071099
 21
165.1134018059
 31
0.0
  0
LINE
  5
311
330
30A
100
AcDbEntity
  8
Default
  6
Continuous
 62
     7
 48
25.4
100
AcDbLine
 10
219.4420071099
 20
153.0353970013
 30
0.0
 11
219.4420071099
 21
165.1134018059
 31
0.0
  0
LINE
  5
312
330
30A
100
AcDbEntity
  8
Default
  6
Continuous
 62
     7
 48
25.4
100
AcDbLine
 10
228.2183652807
 20
163.113401711
 30
0.0
 11
211.4420075033
 21
163.113401711
 31
0.0
  0
TEXT
  5
313
330
30A
100
AcDbEntity
  8
Default
  6
Continuous
 62
     7
 48
25.4
100
AcDbText
 10
223.6879306593
 20
164.113401711
 30
0.0
 40
4.0
  1
3
  7
SEACAD_arial_ttf
 11
223.6879306593
 21
168.113401711
 31
0.0
100
AcDbText
 73
     3
  0
ENDBLK
  5
315
330
30A
100
AcDbEntity
  8
0
100
AcDbBlockEnd
  0
BLOCK
  5
320
330
316
100
AcDbEntity
  8
0
100
AcDbBlockBegin
  2
GDimGGroup10
 70
     0
 71
     0
 10
0.0
 20
0.0
 30
0.0
  3
GDimGGroup10
  1

  0
HATCH
  5
318
330
316
100
AcDbEntity
  8
Default
  6
Continuous
 62
     7
 48
25.4
100
AcDbHatch
 10
0.0
 20
0.0
 30
0.0
210
0.0
220
0.0
230
1.0
  2
SOLID
 70
     1
 71
     0
 91
        1
 92
        1
 93
        3
 72
     1
 10
223.4420072999174
 20
163.7747010489944
 11
219.4420071099276
 21
163.1080343506627
 72
     1
 10
219.4420071099276
 20
163.1080343506627
 11
223.4420072999174
 21
162.4413676523311
 72
     1
 10
223.4420072999174
 20
162.4413676523311
 11
223.4420072999174
 21
163.7747010489944
 97
        0
 75
     0
 76
     1
 98
        0
  0
LWPOLYLINE
  5
319
330
316
100
AcDbEntity
  8
Default
  6
Continuous
 62
     7
 48
25.4
370
    30
100
AcDbPolyline
 90
        4
 70
     1
 43
0.00035
 10
223.4420072999
 20
163.774701049
 10
219.4420071099
 20
163.1080343507
 10
223.4420072999
 20
162.4413676523
 10
223.4420072999
 20
163.774701049
  0
HATCH
  5
31A
330
316
100
AcDbEntity
  8
Default
  6
Continuous
 62
     7
 48
25.4
100
AcDbHatch
 10
0.0
 20
0.0
 30
0.0
210
0.0
220
0.0
230
1.0
  2
SOLID
 70
     1
 71
     0
 91
        1
 92
        1
 93
        3
 72
     1
 10
213.9571699205851
 20
163.7747010489944
 11
213.9571699205851
 21
162.4413676523311
 72
     1
 10
213.9571699205851
 20
162.4413676523311
 11
217.9571701105749
 21
163.1080343506627
 72
     1
 10
217.9571701105749
 20
163.1080343506627
 11
213.9571699205851
 21
163.7747010489944
 97
        0
 75
     0
 76
     1
 98
        0
  0
LWPOLYLINE
  5
31B
330
316
100
AcDbEntity
  8
Default
  6
Continuous
 62
     7
 48
25.4
370
    30
100
AcDbPolyline
 90
        4
 70
     1
 43
0.00035
 10
213.9571699206
 20
163.774701049
 10
217.9571701106
 20
163.1080343507
 10
213.9571699206
 20
162.4413676523
 10
213.9571699206
 20
163.774701049
  0
LINE
  5
31C
330
316
100
AcDbEntity
  8
Default
  6
Continuous
 62
     7
 48
25.4
100
AcDbLine
 10
219.4420071099
 20
153.0353970013
 30
0.0
 11
219.4420071099
 21
165.1080344457
 31
0.0
  0
LINE
  5
31D
330
316
100
AcDbEntity
  8
Default
  6
Continuous
 62
     7
 48
25.4
100
AcDbLine
 10
217.9571701106
 20
154.5202340006
 30
0.0
 11
217.9571701106
 21
165.1080344457
 31
0.0
  0
LINE
  5
31E
330
316
100
AcDbEntity
  8
Default
  6
Continuous
 62
     7
 48
25.4
100
AcDbLine
 10
227.4420074899
 20
163.1080343507
 30
0.0
 11
208.9786808718
 21
163.1080343507
 31
0.0
  0
TEXT
  5
31F
330
316
100
AcDbEntity
  8
Default
  6
Continuous
 62
     7
 48
25.4
100
AcDbText
 10
210.3786810017
 20
164.1080343507
 30
0.0
 40
4.0
  1
2
  7
SEACAD_arial_ttf
 11
210.3786810017
 21
168.1080343507
 31
0.0
100
AcDbText
 73
     3
  0
ENDBLK
  5
321
330
316
100
AcDbEntity
  8
0
100
AcDbBlockEnd
  0
BLOCK
  5
32C
330
322
100
AcDbEntity
  8
0
100
AcDbBlockBegin
  2
GDimGGroup11
 70
     0
 71
     0
 10
0.0
 20
0.0
 30
0.0
  3
GDimGGroup11
  1

  0
HATCH
  5
324
330
322
100
AcDbEntity
  8
Default
  6
Continuous
 62
     7
 48
25.4
100
AcDbHatch
 10
0.0
 20
0.0
 30
0.0
210
0.0
220
0.0
230
1.0
  2
SOLID
 70
     1
 71
     0
 91
        1
 92
        1
 93
        3
 72
     1
 10
523.1686770955181
 20
347.4887712273347
 11
525.8097676303286
 21
344.4115830963427
 72
     1
 10
525.8097676303285
 20
344.4115830963427
 11
524.3094457074511
 21
348.1790066369493
 72
     1
 10
524.3094457074512
 20
348.1790066369493
 11
523.1686770955181
 21
347.4887712273347
 97
        0
 75
     0
 76
     1
 98
        0
  0
LWPOLYLINE
  5
325
330
322
100
AcDbEntity
  8
Default
  6
Continuous
 62
     7
 48
25.4
370
    30
100
AcDbPolyline
 90
        4
 70
     1
 43
0.00035
 10
523.1686770955
 20
347.4887712273
 10
525.8097676303
 20
344.4115830963
 10
524.3094457075
 20
348.1790066369
 10
523.1686770955
 20
347.4887712273
  0
HATCH
  5
326
330
322
100
AcDbEntity
  8
Default
  6
Continuous
 62
     7
 48
25.4
100
AcDbHatch
 10
0.0
 20
0.0
 30
0.0
210
0.0
220
0.0
230
1.0
  2
SOLID
 70
     1
 71
     0
 91
        1
 92
        1
 93
        3
 72
     1
 10
447.4431991005652
 20
392.5832242856911
 11
443.4300637255888
 21
392.000823677264
 72
     1
 10
443.4300637255889
 20
392.000823677264
 11
447.4151595478942
 21
391.2501857528108
 72
     1
 10
447.4151595478942
 20
391.2501857528109
 11
447.4431991005652
 21
392.5832242856911
 97
        0
 75
     0
 76
     1
 98
        0
  0
LWPOLYLINE
  5
327
330
322
100
AcDbEntity
  8
Default
  6
Continuous
 62
     7
 48
25.4
370
    30
100
AcDbPolyline
 90
        4
 70
     1
 43
0.00035
 10
447.4431991006
 20
392.5832242857
 10
443.4300637256
 20
392.0008236773
 10
447.4151595479
 20
391.2501857528
 10
447.4431991006
 20
392.5832242857
  0
LINE
  5
328
330
322
100
AcDbEntity
  8
Default
  6
Continuous
 62
     7
 48
25.4
100
AcDbLine
 10
488.8097307336
 20
323.0741125929
 30
0.0
 11
527.5423122626
 21
345.410720478
 31
0.0
  0
LINE
  5
329
330
322
100
AcDbEntity
  8
Default
  6
Continuous
 62
     7
 48
25.4
100
AcDbLine
 10
443.4300666678
 20
296.9042131908
 30
0.0
 11
443.4300666678
 21
394.0008202798
 31
0.0
  0
ARC
  5
32A
330
322
100
AcDbEntity
  8
Default
  6
Continuous
 62
     7
 48
25.4
100
AcDbCircle
 10
443.4300666678
 20
296.9042131908
 30
0.0
 40
95.09661048650773
100
AcDbArc
 50
29.9715250444
 51
90.0000017727
  0
TEXT
  5
32B
330
322
100
AcDbEntity
  8
Default
  6
Continuous
 62
     7
 48
25.4
100
AcDbText
 10
487.8095585823
 20
382.2457286089
 30
0.0
 40
4.0
  1
60°
 50
329.9857625222
  7
SEACAD_arial_ttf
 11
489.8104193181
 21
385.7093331353
 31
0.0
100
AcDbText
 73
     3
  0
ENDBLK
  5
32D
330
322
100
AcDbEntity
  8
0
100
AcDbBlockEnd
  0
BLOCK
  5
338
330
32E
100
AcDbEntity
  8
0
100
AcDbBlockBegin
  2
GDimGGroup12
 70
     0
 71
     0
 10
0.0
 20
0.0
 30
0.0
  3
GDimGGroup12
  1

  0
HATCH
  5
330
330
32E
100
AcDbEntity
  8
Default
  6
Continuous
 62
     7
 48
25.4
100
AcDbHatch
 10
0.0
 20
0.0
 30
0.0
210
0.0
220
0.0
230
1.0
  2
SOLID
 70
     1
 71
     0
 91
        1
 92
        1
 93
        3
 72
     1
 10
537.7780919444103
 20
300.8404081939696
 11
538.52666438078
 21
296.8549238678067
 72
     1
 10
538.52666438078
 20
296.8549238678067
 11
539.1111448305372
 21
300.867756858405
 72
     1
 10
539.1111448305371
 20
300.8677568584051
 11
537.7780919444102
 21
300.8404081939697
 97
        0
 75
     0
 76
     1
 98
        0
  0
LWPOLYLINE
  5
331
330
32E
100
AcDbEntity
  8
Default
  6
Continuous
 62
     7
 48
25.4
370
    30
100
AcDbPolyline
 90
        4
 70
     1
 43
0.00035
 10
537.7780919444
 20
300.840408194
 10
538.5266643808
 20
296.8549238678
 10
539.1111448305
 20
300.8677568584
 10
537.7780919444
 20
300.840408194
  0
HATCH
  5
332
330
32E
100
AcDbEntity
  8
Default
  6
Continuous
 62
     7
 48
25.4
100
AcDbHatch
 10
0.0
 20
0.0
 30
0.0
210
0.0
220
0.0
230
1.0
  2
SOLID
 70
     1
 71
     0
 91
        1
 92
        1
 93
        3
 72
     1
 10
528.3191249135685
 20
341.226060920441
 11
525.8097663544663
 21
344.4115853087393
 72
     1
 10
525.8097663544663
 20
344.4115853087393
 11
527.1503408655203
 21
340.5844054087483
 72
     1
 10
527.1503408655202
 20
340.5844054087483
 11
528.3191249135685
 21
341.226060920441
 97
        0
 75
     0
 76
     1
 98
        0
  0
LWPOLYLINE
  5
333
330
32E
100
AcDbEntity
  8
Default
  6
Continuous
 62
     7
 48
25.4
370
    30
100
AcDbPolyline
 90
        4
 70
     1
 43
0.00035
 10
528.3191249136
 20
341.2260609204
 10
525.8097663545
 20
344.4115853087
 10
527.1503408655
 20
340.5844054087
 10
528.3191249136
 20
341.2260609204
  0
LINE
  5
334
330
32E
100
AcDbEntity
  8
Default
  6
Continuous
 62
     7
 48
25.4
100
AcDbLine
 10
501.4300683841
 20
296.8741513286
 30
0.0
 11
540.5266607147
 21
296.8538872538
 31
0.0
  0
LINE
  5
335
330
32E
100
AcDbEntity
  8
Default
  6
Continuous
 62
     7
 48
25.4
100
AcDbLine
 10
488.8097307336
 20
323.0741125929
 30
0.0
 11
527.5423122626
 21
345.410720478
 31
0.0
  0
ARC
  5
336
330
32E
100
AcDbEntity
  8
Default
  6
Continuous
 62
     7
 48
25.4
100
AcDbCircle
 10
443.4300666678
 20
296.9042131908
 30
0.0
 40
95.09661048650791
100
AcDbArc
 50
359.9703031444
 51
29.9715265831
  0
TEXT
  5
337
330
32E
100
AcDbEntity
  8
Default
  6
Continuous
 62
     7
 48
25.4
100
AcDbText
 10
535.1641738058
 20
325.8449654968
 30
0.0
 40
4.0
  1
30°
 50
284.9709140944
  7
SEACAD_arial_ttf
 11
539.0284021657
 21
326.878280155
 31
0.0
100
AcDbText
 73
     3
  0
ENDBLK
  5
339
330
32E
100
AcDbEntity
  8
0
100
AcDbBlockEnd
  0
BLOCK
  5
344
330
33A
100
AcDbEntity
  8
0
100
AcDbBlockBegin
  2
GDimGGroup13
 70
     0
 71
     0
 10
0.0
 20
0.0
 30
0.0
  3
GDimGGroup13
  1

  0
HATCH
  5
33C
330
33A
100
AcDbEntity
  8
Default
  6
Continuous
 62
     7
 48
25.4
100
AcDbHatch
 10
0.0
 20
0.0
 30
0.0
210
0.0
220
0.0
230
1.0
  2
SOLID
 70
     1
 71
     0
 91
        1
 92
        1
 93
        3
 72
     1
 10
527.0521785299583
 20
253.0363899895535
 11
525.7030250219469
 21
249.2122259216291
 72
     1
 10
525.7030250219469
 20
249.2122259216291
 11
528.2195207407439
 21
252.3921151184188
 72
     1
 10
528.2195207407439
 20
252.3921151184188
 11
527.0521785299583
 21
253.0363899895535
 97
        0
 75
     0
 76
     1
 98
        0
  0
LWPOLYLINE
  5
33D
330
33A
100
AcDbEntity
  8
Default
  6
Continuous
 62
     7
 48
25.4
370
    30
100
AcDbPolyline
 90
        4
 70
     1
 43
0.00035
 10
527.05217853
 20
253.0363899896
 10
525.7030250219
 20
249.2122259216
 10
528.2195207407
 20
252.3921151184
 10
527.05217853
 20
253.0363899896
  0
HATCH
  5
33E
330
33A
100
AcDbEntity
  8
Default
  6
Continuous
 62
     7
 48
25.4
100
AcDbHatch
 10
0.0
 20
0.0
 30
0.0
210
0.0
220
0.0
230
1.0
  2
SOLID
 70
     1
 71
     0
 91
        1
 92
        1
 93
        3
 72
     1
 10
539.1069847400472
 20
292.8414869849681
 11
538.5266643806942
 21
296.8549237026831
 72
     1
 10
538.5266643806943
 20
296.8549237026832
 11
537.7739609202829
 21
292.8702175018112
 72
     1
 10
537.7739609202829
 20
292.8702175018111
 11
539.1069847400473
 21
292.8414869849681
 97
        0
 75
     0
 76
     1
 98
        0
  0
LWPOLYLINE
  5
33F
330
33A
100
AcDbEntity
  8
Default
  6
Continuous
 62
     7
 48
25.4
370
    30
100
AcDbPolyline
 90
        4
 70
     1
 43
0.00035
 10
539.10698474
 20
292.841486985
 10
538.5266643807
 20
296.8549237027
 10
537.7739609203
 20
292.8702175018
 10
539.10698474
 20
292.841486985
  0
LINE
  5
340
330
33A
100
AcDbEntity
  8
Default
  6
Continuous
 62
     7
 48
25.4
100
AcDbLine
 10
502.7060279335
 20
262.5431248502
 30
0.0
 11
527.4333247282
 21
248.2092058138
 31
0.0
  0
LINE
  5
341
330
33A
100
AcDbEntity
  8
Default
  6
Continuous
 62
     7
 48
25.4
100
AcDbLine
 10
501.4300683841
 20
296.8741513286
 30
0.0
 11
540.5266607147
 21
296.8538872538
 31
0.0
  0
ARC
  5
342
330
33A
100
AcDbEntity
  8
Default
  6
Continuous
 62
     7
 48
25.4
100
AcDbCircle
 10
443.4300666678
 20
296.9042131908
 30
0.0
 40
95.09661048650797
100
AcDbArc
 50
329.8999888277
 51
359.9703030449
  0
TEXT
  5
343
330
33A
100
AcDbEntity
  8
Default
  6
Continuous
 62
     7
 48
25.4
100
AcDbText
 10
533.1853359111
 20
268.332920648
 30
0.0
 40
4.0
  1
30°
 50
74.9351459861
  7
SEACAD_arial_ttf
 11
529.3228069266
 21
269.3725695522
 31
0.0
100
AcDbText
 73
     3
  0
ENDBLK
  5
345
330
33A
100
AcDbEntity
  8
0
100
AcDbBlockEnd
  0
BLOCK
  5
34F
330
346
100
AcDbEntity
  8
0
100
AcDbBlockBegin
  2
GDimGGroup14
 70
     0
 71
     0
 10
0.0
 20
0.0
 30
0.0
  3
GDimGGroup14
  1

  0
LINE
  5
348
330
346
100
AcDbEntity
  8
Default
  6
Continuous
 62
     7
 48
25.4
100
AcDbLine
 10
443.4300666678
 20
296.8741513295
 30
0.0
 11
404.7426858131
 21
340.0862603848
 31
0.0
  0
HATCH
  5
349
330
346
100
AcDbEntity
  8
Default
  6
Continuous
 62
     7
 48
25.4
100
AcDbHatch
 10
0.0
 20
0.0
 30
0.0
210
0.0
220
0.0
230
1.0
  2
SOLID
 70
     1
 71
     0
 91
        1
 92
        1
 93
        3
 72
     1
 10
406.9140891882219
 20
336.661433376344
 11
407.9074710813536
 21
337.5507985212961
 72
     1
 10
407.9074710813536
 20
337.5507985212961
 11
404.7426846999314
 21
340.0862616282152
 72
     1
 10
404.7426846999314
 20
340.0862616282152
 11
406.9140891882219
 21
336.661433376344
 97
        0
 75
     0
 76
     1
 98
        0
  0
LWPOLYLINE
  5
34A
330
346
100
AcDbEntity
  8
Default
  6
Continuous
 62
     7
 48
25.4
370
    30
100
AcDbPolyline
 90
        4
 70
     1
 43
0.00035
 10
406.9140891882
 20
336.6614333763
 10
404.7426846999
 20
340.0862616282
 10
407.9074710814
 20
337.5507985213
 10
406.9140891882
 20
336.6614333763
  0
ARC
  5
34B
330
346
100
AcDbEntity
  8
Default
  6
Continuous
 62
     7
 48
25.4
100
AcDbCircle
 10
443.4300666678
 20
296.8741513295
 30
0.0
 40
57.99999999999909
100
AcDbArc
 50
122.9639052647
 51
133.8134923618
  0
TEXT
  5
34C
330
346
100
AcDbEntity
  8
Default
  6
Continuous
 62
     7
 48
25.4
100
AcDbText
 10
407.9926598427
 20
337.9553786337
 30
0.0
 40
4.0
  1
R
 50
311.8377758268
  7
SEACAD_arial_ttf
 11
410.9728053806
 21
340.6234739418
 31
0.0
100
AcDbText
 73
     3
  0
TEXT
  5
34D
330
346
100
AcDbEntity
  8
Default
  6
Continuous
 62
     7
 48
25.4
100
AcDbText
 10
412.2616123357
 20
333.1871457731
 30
0.0
 40
4.0
  1
58
 50
311.8377758268
  7
SEACAD_arial_ttf
 11
415.2417578736
 21
335.8552410813
 31
0.0
100
AcDbText
 73
     3
  0
TEXT
  5
34E
330
346
100
AcDbEntity
  8
Default
  6
Continuous
 62
     7
 48
25.4
100
AcDbText
 10
417.7718091677
 20
327.0324973798
 30
0.0
 40
4.0
  1
±0.1
 50
311.8377758268
  7
SEACAD_arial_ttf
 11
420.7519547056
 21
329.7005926879
 31
0.0
100
AcDbText
 73
     3
  0
ENDBLK
  5
350
330
346
100
AcDbEntity
  8
0
100
AcDbBlockEnd
  0
BLOCK
  5
35C
330
351
100
AcDbEntity
  8
0
100
AcDbBlockBegin
  2
GDimGGroup15
 70
     0
 71
     0
 10
0.0
 20
0.0
 30
0.0
  3
GDimGGroup15
  1

  0
HATCH
  5
353
330
351
100
AcDbEntity
  8
Default
  6
Continuous
 62
     7
 48
25.4
100
AcDbHatch
 10
0.0
 20
0.0
 30
0.0
210
0.0
220
0.0
230
1.0
  2
SOLID
 70
     1
 71
     0
 91
        1
 92
        1
 93
        3
 72
     1
 10
54.84843282894573
 20
259.8234877496159
 11
55.51509952727736
 21
255.8234875596261
 72
     1
 10
55.51509952727736
 20
255.8234875596261
 11
56.18176622560899
 21
259.8234877496159
 72
     1
 10
56.18176622560899
 20
259.8234877496159
 11
54.84843282894573
 21
259.8234877496159
 97
        0
 75
     0
 76
     1
 98
        0
  0
LWPOLYLINE
  5
354
330
351
100
AcDbEntity
  8
Default
  6
Continuous
 62
     7
 48
25.4
370
    30
100
AcDbPolyline
 90
        4
 70
     1
 43
0.00035
 10
54.8484328289
 20
259.8234877496
 10
55.5150995273
 20
255.8234875596
 10
56.1817662256
 20
259.8234877496
 10
54.8484328289
 20
259.8234877496
  0
HATCH
  5
355
330
351
100
AcDbEntity
  8
Default
  6
Continuous
 62
     7
 48
25.4
100
AcDbHatch
 10
0.0
 20
0.0
 30
0.0
210
0.0
220
0.0
230
1.0
  2
SOLID
 70
     1
 71
     0
 91
        1
 92
        1
 93
        3
 72
     1
 10
54.84843282894573
 20
334.3864853068388
 11
56.18176622560899
 21
334.3864853068388
 72
     1
 10
56.18176622560899
 20
334.3864853068388
 11
55.51509952727736
 21
338.3864854968286
 72
     1
 10
55.51509952727736
 20
338.3864854968286
 11
54.84843282894573
 21
334.3864853068388
 97
        0
 75
     0
 76
     1
 98
        0
  0
LWPOLYLINE
  5
356
330
351
100
AcDbEntity
  8
Default
  6
Continuous
 62
     7
 48
25.4
370
    30
100
AcDbPolyline
 90
        4
 70
     1
 43
0.00035
 10
54.8484328289
 20
334.3864853068
 10
55.5150995273
 20
338.3864854968
 10
56.1817662256
 20
334.3864853068
 10
54.8484328289
 20
334.3864853068
  0
LINE
  5
357
330
351
100
AcDbEntity
  8
Default
  6
Continuous
 62
     7
 48
25.4
100
AcDbLine
 10
121.0856402535
 20
255.8234875596
 30
0.0
 11
53.5150994323
 21
255.8234875596
 31
0.0
  0
LINE
  5
358
330
351
100
AcDbEntity
  8
Default
  6
Continuous
 62
     7
 48
25.4
100
AcDbLine
 10
121.0856402535
 20
338.3864875596
 30
0.0
 11
53.5150994323
 21
338.3864875596
 31
0.0
  0
LINE
  5
359
330
351
100
AcDbEntity
  8
Default
  6
Continuous
 62
     7
 48
25.4
100
AcDbLine
 10
55.5150995273
 20
255.8234875596
 30
0.0
 11
55.5150995273
 21
338.3864854968
 31
0.0
  0
TEXT
  5
35A
330
351
100
AcDbEntity
  8
Default
  6
Continuous
 62
     7
 48
25.4
100
AcDbText
 10
54.5150995273
 20
292.1769926304
 30
0.0
 40
4.0
  1
82.563
 50
90.0
  7
SEACAD_arial_ttf
 11
50.5150995273
 21
292.1769926304
 31
0.0
100
AcDbText
 73
     3
  0
TEXT
  5
35B
330
351
100
AcDbEntity
  8
Default
  6
Continuous
 62
     7
 48
25.4
100
AcDbText
 10
54.5150995273
 20
284.8155891217
 30
0.0
 40
4.0
  1
O
 50
90.0
  7
SEACAD_semeca1_ttf
 11
50.5150995273
 21
284.8155891217
 31
0.0
100
AcDbText
 73
     3
  0
ENDBLK
  5
35D
330
351
100
AcDbEntity
  8
0
100
AcDbBlockEnd
  0
BLOCK
  5
367
330
35E
100
AcDbEntity
  8
0
100
AcDbBlockBegin
  2
GDimGGroup16
 70
     0
 71
     0
 10
0.0
 20
0.0
 30
0.0
  3
GDimGGroup16
  1

  0
HATCH
  5
360
330
35E
100
AcDbEntity
  8
Default
  6
Continuous
 62
     7
 48
25.4
100
AcDbHatch
 10
0.0
 20
0.0
 30
0.0
210
0.0
220
0.0
230
1.0
  2
SOLID
 70
     1
 71
     0
 91
        1
 92
        1
 93
        3
 72
     1
 10
158.4430541681377
 20
303.1049873696364
 11
157.7763874698061
 21
307.1049875596262
 72
     1
 10
157.7763874698061
 20
307.1049875596262
 11
157.1097207714745
 21
303.1049873696364
 72
     1
 10
157.1097207714745
 20
303.1049873696364
 11
158.4430541681377
 21
303.1049873696364
 97
        0
 75
     0
 76
     1
 98
        0
  0
LWPOLYLINE
  5
361
330
35E
100
AcDbEntity
  8
Default
  6
Continuous
 62
     7
 48
25.4
370
    30
100
AcDbPolyline
 90
        4
 70
     1
 43
0.00035
 10
158.4430541681
 20
303.1049873696
 10
157.7763874698
 20
307.1049875596
 10
157.1097207715
 20
303.1049873696
 10
158.4430541681
 20
303.1049873696
  0
HATCH
  5
362
330
35E
100
AcDbEntity
  8
Default
  6
Continuous
 62
     7
 48
25.4
100
AcDbHatch
 10
0.0
 20
0.0
 30
0.0
210
0.0
220
0.0
230
1.0
  2
SOLID
 70
     1
 71
     0
 91
        1
 92
        1
 93
        3
 72
     1
 10
158.4430541681377
 20
291.1049881966508
 11
157.1097207714745
 21
291.1049881966508
 72
     1
 10
157.1097207714745
 20
291.1049881966508
 11
157.7763874698061
 21
287.104988006661
 72
     1
 10
157.7763874698061
 20
287.104988006661
 11
158.4430541681377
 21
291.1049881966508
 97
        0
 75
     0
 76
     1
 98
        0
  0
LWPOLYLINE
  5
363
330
35E
100
AcDbEntity
  8
Default
  6
Continuous
 62
     7
 48
25.4
370
    30
100
AcDbPolyline
 90
        4
 70
     1
 43
0.00035
 10
158.4430541681
 20
291.1049881967
 10
157.7763874698
 20
287.1049880067
 10
157.1097207715
 20
291.1049881967
 10
158.4430541681
 20
291.1049881967
  0
LINE
  5
364
330
35E
100
AcDbEntity
  8
Default
  6
Continuous
 62
     7
 48
25.4
100
AcDbLine
 10
157.7763874698
 20
307.1049875596
 30
0.0
 11
157.7763874698
 21
287.1049880067
 31
0.0
  0
TEXT
  5
365
330
35E
100
AcDbEntity
  8
Default
  6
Continuous
 62
     7
 48
25.4
100
AcDbText
 10
156.7763874698
 20
297.6552547549
 30
0.0
 40
4.0
  1
20
 50
90.0
  7
SEACAD_arial_ttf
 11
152.7763874698
 21
297.6552547549
 31
0.0
100
AcDbText
 73
     3
  0
TEXT
  5
366
330
35E
100
AcDbEntity
  8
Default
  6
Continuous
 62
     7
 48
25.4
100
AcDbText
 10
156.7763874698
 20
290.2938512461
 30
0.0
 40
4.0
  1
O
 50
90.0
  7
SEACAD_semeca1_ttf
 11
152.7763874698
 21
290.2938512461
 31
0.0
100
AcDbText
 73
     3
  0
ENDBLK
  5
368
330
35E
100
AcDbEntity
  8
0
100
AcDbBlockEnd
  0
BLOCK
  5
373
330
369
100
AcDbEntity
  8
0
100
AcDbBlockBegin
  2
GDimGGroup17
 70
     0
 71
     0
 10
0.0
 20
0.0
 30
0.0
  3
GDimGGroup17
  1

  0
HATCH
  5
36B
330
369
100
AcDbEntity
  8
Default
  6
Continuous
 62
     7
 48
25.4
100
AcDbHatch
 10
0.0
 20
0.0
 30
0.0
210
0.0
220
0.0
230
1.0
  2
SOLID
 70
     1
 71
     0
 91
        1
 92
        1
 93
        3
 72
     1
 10
125.085640443452
 20
184.9750779543396
 11
125.085640443452
 21
186.3084113510028
 72
     1
 10
125.085640443452
 20
186.3084113510028
 11
121.0856402534622
 21
185.6417446526712
 72
     1
 10
121.0856402534622
 20
185.6417446526712
 11
125.085640443452
 21
184.9750779543396
 97
        0
 75
     0
 76
     1
 98
        0
  0
LWPOLYLINE
  5
36C
330
369
100
AcDbEntity
  8
Default
  6
Continuous
 62
     7
 48
25.4
370
    30
100
AcDbPolyline
 90
        4
 70
     1
 43
0.00035
 10
125.0856404435
 20
184.9750779543
 10
121.0856402535
 20
185.6417446527
 10
125.0856404435
 20
186.308411351
 10
125.0856404435
 20
184.9750779543
  0
HATCH
  5
36D
330
369
100
AcDbEntity
  8
Default
  6
Continuous
 62
     7
 48
25.4
100
AcDbHatch
 10
0.0
 20
0.0
 30
0.0
210
0.0
220
0.0
230
1.0
  2
SOLID
 70
     1
 71
     0
 91
        1
 92
        1
 93
        3
 72
     1
 10
214.0862017180401
 20
184.9750779543396
 11
218.08620190803
 21
185.6417446526712
 72
     1
 10
218.08620190803
 20
185.6417446526712
 11
214.0862017180401
 21
186.3084113510028
 72
     1
 10
214.0862017180401
 20
186.3084113510028
 11
214.0862017180401
 21
184.9750779543396
 97
        0
 75
     0
 76
     1
 98
        0
  0
LWPOLYLINE
  5
36E
330
369
100
AcDbEntity
  8
Default
  6
Continuous
 62
     7
 48
25.4
370
    30
100
AcDbPolyline
 90
        4
 70
     1
 43
0.00035
 10
214.086201718
 20
184.9750779543
 10
218.086201908
 20
185.6417446527
 10
214.086201718
 20
186.308411351
 10
214.086201718
 20
184.9750779543
  0
LINE
  5
36F
330
369
100
AcDbEntity
  8
Default
  6
Continuous
 62
     7
 48
25.4
100
AcDbLine
 10
121.0856402535
 20
232.9035527202
 30
0.0
 11
121.0856402535
 21
183.6417445577
 31
0.0
  0
LINE
  5
370
330
369
100
AcDbEntity
  8
Default
  6
Continuous
 62
     7
 48
25.4
100
AcDbLine
 10
218.086205393
 20
216.5483109828
 30
0.0
 11
218.086205393
 21
183.6417445577
 31
0.0
  0
LINE
  5
371
330
369
100
AcDbEntity
  8
Default
  6
Continuous
 62
     7
 48
25.4
100
AcDbLine
 10
121.0856402535
 20
185.6417446527
 30
0.0
 11
218.086201908
 21
185.6417446527
 31
0.0
  0
TEXT
  5
372
330
369
100
AcDbEntity
  8
Default
  6
Continuous
 62
     7
 48
25.4
100
AcDbText
 10
166.4554862981
 20
186.6417446527
 30
0.0
 40
4.0
  1
97
  7
SEACAD_arial_ttf
 11
166.4554862981
 21
190.6417446527
 31
0.0
100
AcDbText
 73
     3
  0
ENDBLK
  5
374
330
369
100
AcDbEntity
  8
0
100
AcDbBlockEnd
  0
BLOCK
  5
37F
330
375
100
AcDbEntity
  8
0
100
AcDbBlockBegin
  2
GDimGGroup18
 70
     0
 71
     0
 10
0.0
 20
0.0
 30
0.0
  3
GDimGGroup18
  1

  0
HATCH
  5
377
330
375
100
AcDbEntity
  8
Default
  6
Continuous
 62
     7
 48
25.4
100
AcDbHatch
 10
0.0
 20
0.0
 30
0.0
210
0.0
220
0.0
230
1.0
  2
SOLID
 70
     1
 71
     0
 91
        1
 92
        1
 93
        3
 72
     1
 10
214.0862052029801
 20
199.5364376363258
 11
218.0862053929699
 21
200.2031043346574
 72
     1
 10
218.0862053929699
 20
200.2031043346574
 11
214.0862052029801
 21
200.8697710329891
 72
     1
 10
214.0862052029801
 20
200.8697710329891
 11
214.0862052029801
 21
199.5364376363258
 97
        0
 75
     0
 76
     1
 98
        0
  0
LWPOLYLINE
  5
378
330
375
100
AcDbEntity
  8
Default
  6
Continuous
 62
     7
 48
25.4
370
    30
100
AcDbPolyline
 90
        4
 70
     1
 43
0.00035
 10
214.086205203
 20
199.5364376363
 10
218.086205393
 20
200.2031043347
 10
214.086205203
 20
200.869771033
 10
214.086205203
 20
199.5364376363
  0
HATCH
  5
379
330
375
100
AcDbEntity
  8
Default
  6
Continuous
 62
     7
 48
25.4
100
AcDbHatch
 10
0.0
 20
0.0
 30
0.0
210
0.0
220
0.0
230
1.0
  2
SOLID
 70
     1
 71
     0
 91
        1
 92
        1
 93
        3
 72
     1
 10
209.085640001936
 20
199.5364376363258
 11
209.085640001936
 21
200.8697710329891
 72
     1
 10
209.085640001936
 20
200.8697710329891
 11
205.0856398119462
 21
200.2031043346574
 72
     1
 10
205.0856398119462
 20
200.2031043346574
 11
209.085640001936
 21
199.5364376363258
 97
        0
 75
     0
 76
     1
 98
        0
  0
LWPOLYLINE
  5
37A
330
375
100
AcDbEntity
  8
Default
  6
Continuous
 62
     7
 48
25.4
370
    30
100
AcDbPolyline
 90
        4
 70
     1
 43
0.00035
 10
209.0856400019
 20
199.5364376363
 10
205.0856398119
 20
200.2031043347
 10
209.0856400019
 20
200.869771033
 10
209.0856400019
 20
199.5364376363
  0
LINE
  5
37B
330
375
100
AcDbEntity
  8
Default
  6
Continuous
 62
     7
 48
25.4
100
AcDbLine
 10
218.086205393
 20
216.5483109828
 30
0.0
 11
218.086205393
 21
198.2031042397
 31
0.0
  0
LINE
  5
37C
330
375
100
AcDbEntity
  8
Default
  6
Continuous
 62
     7
 48
25.4
100
AcDbLine
 10
205.0856397388
 20
235.2035522583
 30
0.0
 11
205.0856397388
 21
198.2031042397
 31
0.0
  0
LINE
  5
37D
330
375
100
AcDbEntity
  8
Default
  6
Continuous
 62
     7
 48
25.4
100
AcDbLine
 10
218.086205393
 20
200.2031043347
 30
0.0
 11
205.0856398119
 21
200.2031043347
 31
0.0
  0
TEXT
  5
37E
330
375
100
AcDbEntity
  8
Default
  6
Continuous
 62
     7
 48
25.4
100
AcDbText
 10
208.4554878198
 20
201.2031043347
 30
0.0
 40
4.0
  1
13
  7
SEACAD_arial_ttf
 11
208.4554878198
 21
205.2031043347
 31
0.0
100
AcDbText
 73
     3
  0
ENDBLK
  5
380
330
375
100
AcDbEntity
  8
0
100
AcDbBlockEnd
  0
BLOCK
  5
38A
330
381
100
AcDbEntity
  8
0
100
AcDbBlockBegin
  2
GDimGGroup19
 70
     0
 71
     0
 10
0.0
 20
0.0
 30
0.0
  3
GDimGGroup19
  1

  0
HATCH
  5
383
330
381
100
AcDbEntity
  8
Default
  6
Continuous
 62
     7
 48
25.4
100
AcDbHatch
 10
0.0
 20
0.0
 30
0.0
210
0.0
220
0.0
230
1.0
  2
SOLID
 70
     1
 71
     0
 91
        1
 92
        1
 93
        3
 72
     1
 10
140.085640443452
 20
219.3560698237594
 11
140.085640443452
 21
220.6894032204227
 72
     1
 10
140.085640443452
 20
220.6894032204227
 11
136.0856402534622
 21
220.022736522091
 72
     1
 10
136.0856402534622
 20
220.022736522091
 11
140.085640443452
 21
219.3560698237594
 97
        0
 75
     0
 76
     1
 98
        0
  0
LWPOLYLINE
  5
384
330
381
100
AcDbEntity
  8
Default
  6
Continuous
 62
     7
 48
25.4
370
    30
100
AcDbPolyline
 90
        4
 70
     1
 43
0.00035
 10
140.0856404435
 20
219.3560698238
 10
136.0856402535
 20
220.0227365221
 10
140.0856404435
 20
220.6894032204
 10
140.0856404435
 20
219.3560698238
  0
HATCH
  5
385
330
381
100
AcDbEntity
  8
Default
  6
Continuous
 62
     7
 48
25.4
100
AcDbHatch
 10
0.0
 20
0.0
 30
0.0
210
0.0
220
0.0
230
1.0
  2
SOLID
 70
     1
 71
     0
 91
        1
 92
        1
 93
        3
 72
     1
 10
127.0856400634724
 20
219.3560698237594
 11
131.0856402534622
 21
220.022736522091
 72
     1
 10
131.0856402534622
 20
220.022736522091
 11
127.0856400634724
 21
220.6894032204227
 72
     1
 10
127.0856400634724
 20
220.6894032204227
 11
127.0856400634724
 21
219.3560698237594
 97
        0
 75
     0
 76
     1
 98
        0
  0
LWPOLYLINE
  5
386
330
381
100
AcDbEntity
  8
Default
  6
Continuous
 62
     7
 48
25.4
370
    30
100
AcDbPolyline
 90
        4
 70
     1
 43
0.00035
 10
127.0856400635
 20
219.3560698238
 10
131.0856402535
 20
220.0227365221
 10
127.0856400635
 20
220.6894032204
 10
127.0856400635
 20
219.3560698238
  0
LINE
  5
387
330
381
100
AcDbEntity
  8
Default
  6
Continuous
 62
     7
 48
25.4
100
AcDbLine
 10
136.0856402535
 20
227.1035527202
 30
0.0
 11
136.0856402535
 21
218.0227364271
 31
0.0
  0
LINE
  5
388
330
381
100
AcDbEntity
  8
Default
  6
Continuous
 62
     7
 48
25.4
100
AcDbLine
 10
146.8506386373
 20
220.0227365221
 30
0.0
 11
123.0856399852
 21
220.0227365221
 31
0.0
  0
TEXT
  5
389
330
381
100
AcDbEntity
  8
Default
  6
Continuous
 62
     7
 48
25.4
100
AcDbText
 10
142.3202041905
 20
221.0227365221
 30
0.0
 40
4.0
  1
5
  7
SEACAD_arial_ttf
 11
142.3202041905
 21
225.0227365221
 31
0.0
100
AcDbText
 73
     3
  0
ENDBLK
  5
38B
330
381
100
AcDbEntity
  8
0
100
AcDbBlockEnd
  0
BLOCK
  5
396
330
38C
100
AcDbEntity
  8
0
100
AcDbBlockBegin
  2
GDimGGroup20
 70
     0
 71
     0
 10
0.0
 20
0.0
 30
0.0
  3
GDimGGroup20
  1

  0
HATCH
  5
38E
330
38C
100
AcDbEntity
  8
Default
  6
Continuous
 62
     7
 48
25.4
100
AcDbHatch
 10
0.0
 20
0.0
 30
0.0
210
0.0
220
0.0
230
1.0
  2
SOLID
 70
     1
 71
     0
 91
        1
 92
        1
 93
        3
 72
     1
 10
142.0856400634724
 20
305.1174912239458
 11
146.0856402534622
 21
305.7841579222775
 72
     1
 10
146.0856402534622
 20
305.7841579222775
 11
142.0856400634724
 21
306.4508246206091
 72
     1
 10
142.0856400634724
 20
306.4508246206091
 11
142.0856400634724
 21
305.1174912239458
 97
        0
 75
     0
 76
     1
 98
        0
  0
LWPOLYLINE
  5
38F
330
38C
100
AcDbEntity
  8
Default
  6
Continuous
 62
     7
 48
25.4
370
    30
100
AcDbPolyline
 90
        4
 70
     1
 43
0.00035
 10
142.0856400635
 20
305.1174912239
 10
146.0856402535
 20
305.7841579223
 10
142.0856400635
 20
306.4508246206
 10
142.0856400635
 20
305.1174912239
  0
HATCH
  5
390
330
38C
100
AcDbEntity
  8
Default
  6
Continuous
 62
     7
 48
25.4
100
AcDbHatch
 10
0.0
 20
0.0
 30
0.0
210
0.0
220
0.0
230
1.0
  2
SOLID
 70
     1
 71
     0
 91
        1
 92
        1
 93
        3
 72
     1
 10
125.085640443452
 20
305.1174912239458
 11
125.085640443452
 21
306.4508246206091
 72
     1
 10
125.085640443452
 20
306.4508246206091
 11
121.0856402534622
 21
305.7841579222775
 72
     1
 10
121.0856402534622
 20
305.7841579222775
 11
125.085640443452
 21
305.1174912239458
 97
        0
 75
     0
 76
     1
 98
        0
  0
LWPOLYLINE
  5
391
330
38C
100
AcDbEntity
  8
Default
  6
Continuous
 62
     7
 48
25.4
370
    30
100
AcDbPolyline
 90
        4
 70
     1
 43
0.00035
 10
125.0856404435
 20
305.1174912239
 10
121.0856402535
 20
305.7841579223
 10
125.0856404435
 20
306.4508246206
 10
125.0856404435
 20
305.1174912239
  0
LINE
  5
392
330
38C
100
AcDbEntity
  8
Default
  6
Continuous
 62
     7
 48
25.4
100
AcDbLine
 10
146.0856402535
 20
305.7841579223
 30
0.0
 11
96.1965264994
 21
305.7841579223
 31
0.0
  0
TEXT
  5
393
330
38C
100
AcDbEntity
  8
Default
  6
Continuous
 62
     7
 48
25.4
100
AcDbText
 10
112.3095711373
 20
312.7841579223
 30
0.0
 40
4.0
  1
25
  7
SEACAD_arial_ttf
 11
112.3095711373
 21
316.7841579223
 31
0.0
100
AcDbText
 73
     3
  0
TEXT
  5
394
330
38C
100
AcDbEntity
  8
Default
  6
Continuous
 62
     7
 48
25.4
100
AcDbText
 10
97.596527659
 20
312.7841579223
 30
0.0
 40
4.0
  1
MAX
  7
SEACAD_arial_ttf
 11
97.596527659
 21
316.7841579223
 31
0.0
100
AcDbText
 73
     3
  0
TEXT
  5
395
330
38C
100
AcDbEntity
  8
Default
  6
Continuous
 62
     7
 48
25.4
100
AcDbText
 10
97.596527659
 20
306.7841579223
 30
0.0
 40
4.0
  1
MIN 10
  7
SEACAD_arial_ttf
 11
97.596527659
 21
310.7841579223
 31
0.0
100
AcDbText
 73
     3
  0
ENDBLK
  5
397
330
38C
100
AcDbEntity
  8
0
100
AcDbBlockEnd
  0
BLOCK
  5
3A0
330
398
100
AcDbEntity
  8
0
100
AcDbBlockBegin
  2
GDimGGroup21
 70
     0
 71
     0
 10
0.0
 20
0.0
 30
0.0
  3
GDimGGroup21
  1

  0
HATCH
  5
39A
330
398
100
AcDbEntity
  8
Default
  6
Continuous
 62
     7
 48
25.4
100
AcDbHatch
 10
0.0
 20
0.0
 30
0.0
210
0.0
220
0.0
230
1.0
  2
SOLID
 70
     1
 71
     0
 91
        1
 92
        1
 93
        3
 72
     1
 10
166.0856400634724
 20
282.5440784082161
 11
166.0856400634724
 21
281.2107450115528
 72
     1
 10
166.0856400634724
 20
281.2107450115528
 11
170.0856402534622
 21
281.8774117098844
 72
     1
 10
170.0856402534622
 20
281.8774117098844
 11
166.0856400634724
 21
282.5440784082161
 97
        0
 75
     0
 76
     1
 98
        0
  0
LWPOLYLINE
  5
39B
330
398
100
AcDbEntity
  8
Default
  6
Continuous
 62
     7
 48
25.4
370
    30
100
AcDbPolyline
 90
        4
 70
     1
 43
0.00035
 10
166.0856400635
 20
282.5440784082
 10
170.0856402535
 20
281.8774117099
 10
166.0856400635
 20
281.2107450116
 10
166.0856400635
 20
282.5440784082
  0
HATCH
  5
39C
330
398
100
AcDbEntity
  8
Default
  6
Continuous
 62
     7
 48
25.4
100
AcDbHatch
 10
0.0
 20
0.0
 30
0.0
210
0.0
220
0.0
230
1.0
  2
SOLID
 70
     1
 71
     0
 91
        1
 92
        1
 93
        3
 72
     1
 10
150.085640443452
 20
282.5440784082161
 11
146.0856402534622
 21
281.8774117098844
 72
     1
 10
146.0856402534622
 20
281.8774117098844
 11
150.085640443452
 21
281.2107450115528
 72
     1
 10
150.085640443452
 20
281.2107450115528
 11
150.085640443452
 21
282.5440784082161
 97
        0
 75
     0
 76
     1
 98
        0
  0
LWPOLYLINE
  5
39D
330
398
100
AcDbEntity
  8
Default
  6
Continuous
 62
     7
 48
25.4
370
    30
100
AcDbPolyline
 90
        4
 70
     1
 43
0.00035
 10
150.0856404435
 20
282.5440784082
 10
146.0856402535
 20
281.8774117099
 10
150.0856404435
 20
281.2107450116
 10
150.0856404435
 20
282.5440784082
  0
LINE
  5
39E
330
398
100
AcDbEntity
  8
Default
  6
Continuous
 62
     7
 48
25.4
100
AcDbLine
 10
170.0856402535
 20
281.8774117099
 30
0.0
 11
111.0589854437
 21
281.8774117099
 31
0.0
  0
TEXT
  5
39F
330
398
100
AcDbEntity
  8
Default
  6
Continuous
 62
     7
 48
25.4
100
AcDbText
 10
112.4589867346
 20
282.8774117099
 30
0.0
 40
4.0
  1
24
  7
SEACAD_arial_ttf
 11
112.4589867346
 21
286.8774117099
 31
0.0
100
AcDbText
 73
     3
  0
ENDBLK
  5
3A1
330
398
100
AcDbEntity
  8
0
100
AcDbBlockEnd
  0
BLOCK
  5
3AC
330
3A2
100
AcDbEntity
  8
0
100
AcDbBlockBegin
  2
GDimGGroup22
 70
     0
 71
     0
 10
0.0
 20
0.0
 30
0.0
  3
GDimGGroup22
  1

  0
HATCH
  5
3A4
330
3A2
100
AcDbEntity
  8
Default
  6
Continuous
 62
     7
 48
25.4
100
AcDbHatch
 10
0.0
 20
0.0
 30
0.0
210
0.0
220
0.0
230
1.0
  2
SOLID
 70
     1
 71
     0
 91
        1
 92
        1
 93
        3
 72
     1
 10
307.5117780025877
 20
374.5945947750955
 11
306.8451113042561
 21
378.5945949650853
 72
     1
 10
306.8451113042561
 20
378.5945949650853
 11
306.1784446059244
 21
374.5945947750955
 72
     1
 10
306.1784446059244
 20
374.5945947750955
 11
307.5117780025877
 21
374.5945947750955
 97
        0
 75
     0
 76
     1
 98
        0
  0
LWPOLYLINE
  5
3A5
330
3A2
100
AcDbEntity
  8
Default
  6
Continuous
 62
     7
 48
25.4
370
    30
100
AcDbPolyline
 90
        4
 70
     1
 43
0.00035
 10
307.5117780026
 20
374.5945947751
 10
306.8451113043
 20
378.5945949651
 10
306.1784446059
 20
374.5945947751
 10
307.5117780026
 20
374.5945947751
  0
HATCH
  5
3A6
330
3A2
100
AcDbEntity
  8
Default
  6
Continuous
 62
     7
 48
25.4
100
AcDbHatch
 10
0.0
 20
0.0
 30
0.0
210
0.0
220
0.0
230
1.0
  2
SOLID
 70
     1
 71
     0
 91
        1
 92
        1
 93
        3
 72
     1
 10
307.5117780025877
 20
370.594595050767
 11
306.1784446059244
 21
370.594595050767
 72
     1
 10
306.1784446059244
 20
370.594595050767
 11
306.8451113042561
 21
366.5945948607772
 72
     1
 10
306.8451113042561
 20
366.5945948607772
 11
307.5117780025877
 21
370.594595050767
 97
        0
 75
     0
 76
     1
 98
        0
  0
LWPOLYLINE
  5
3A7
330
3A2
100
AcDbEntity
  8
Default
  6
Continuous
 62
     7
 48
25.4
370
    30
100
AcDbPolyline
 90
        4
 70
     1
 43
0.00035
 10
307.5117780026
 20
370.5945950508
 10
306.8451113043
 20
366.5945948608
 10
306.1784446059
 20
370.5945950508
 10
307.5117780026
 20
370.5945950508
  0
LINE
  5
3A8
330
3A2
100
AcDbEntity
  8
Default
  6
Continuous
 62
     7
 48
25.4
100
AcDbLine
 10
247.0856397388
 20
378.5945949651
 30
0.0
 11
308.8451113993
 21
378.5945949651
 31
0.0
  0
LINE
  5
3A9
330
3A2
100
AcDbEntity
  8
Default
  6
Continuous
 62
     7
 48
25.4
100
AcDbLine
 10
251.7579031255
 20
366.5945949651
 30
0.0
 11
308.8451113993
 21
366.5945949651
 31
0.0
  0
LINE
  5
3AA
330
3A2
100
AcDbEntity
  8
Default
  6
Continuous
 62
     7
 48
25.4
100
AcDbLine
 10
306.8451113043
 20
378.5945949651
 30
0.0
 11
306.8451113043
 21
366.5945948608
 31
0.0
  0
TEXT
  5
3AB
330
3A2
100
AcDbEntity
  8
Default
  6
Continuous
 62
     7
 48
25.4
100
AcDbText
 10
305.8451113043
 20
369.4641601303
 30
0.0
 40
4.0
  1
12
 50
90.0
  7
SEACAD_arial_ttf
 11
301.8451113043
 21
369.4641601303
 31
0.0
100
AcDbText
 73
     3
  0
ENDBLK
  5
3AD
330
3A2
100
AcDbEntity
  8
0
100
AcDbBlockEnd
  0
BLOCK
  5
3B8
330
3AE
100
AcDbEntity
  8
0
100
AcDbBlockBegin
  2
GDimGGroup23
 70
     0
 71
     0
 10
0.0
 20
0.0
 30
0.0
  3
GDimGGroup23
  1

  0
HATCH
  5
3B0
330
3AE
100
AcDbEntity
  8
Default
  6
Continuous
 62
     7
 48
25.4
100
AcDbHatch
 10
0.0
 20
0.0
 30
0.0
210
0.0
220
0.0
230
1.0
  2
SOLID
 70
     1
 71
     0
 91
        1
 92
        1
 93
        3
 72
     1
 10
307.5117785716529
 20
362.5945947750955
 11
306.8451118733212
 21
366.5945949650853
 72
     1
 10
306.8451118733212
 20
366.5945949650853
 11
306.1784451749896
 21
362.5945947750955
 72
     1
 10
306.1784451749896
 20
362.5945947750955
 11
307.5117785716529
 21
362.5945947750955
 97
        0
 75
     0
 76
     1
 98
        0
  0
LWPOLYLINE
  5
3B1
330
3AE
100
AcDbEntity
  8
Default
  6
Continuous
 62
     7
 48
25.4
370
    30
100
AcDbPolyline
 90
        4
 70
     1
 43
0.00035
 10
307.5117785717
 20
362.5945947751
 10
306.8451118733
 20
366.5945949651
 10
306.178445175
 20
362.5945947751
 10
307.5117785717
 20
362.5945947751
  0
HATCH
  5
3B2
330
3AE
100
AcDbEntity
  8
Default
  6
Continuous
 62
     7
 48
25.4
100
AcDbHatch
 10
0.0
 20
0.0
 30
0.0
210
0.0
220
0.0
230
1.0
  2
SOLID
 70
     1
 71
     0
 91
        1
 92
        1
 93
        3
 72
     1
 10
307.5117785716529
 20
350.5409588723927
 11
306.1784451749896
 21
350.5409588723927
 72
     1
 10
306.1784451749896
 20
350.5409588723927
 11
306.8451118733212
 21
346.5409586824029
 72
     1
 10
306.8451118733212
 20
346.5409586824029
 11
307.5117785716529
 21
350.5409588723927
 97
        0
 75
     0
 76
     1
 98
        0
  0
LWPOLYLINE
  5
3B3
330
3AE
100
AcDbEntity
  8
Default
  6
Continuous
 62
     7
 48
25.4
370
    30
100
AcDbPolyline
 90
        4
 70
     1
 43
0.00035
 10
307.5117785717
 20
350.5409588724
 10
306.8451118733
 20
346.5409586824
 10
306.178445175
 20
350.5409588724
 10
307.5117785717
 20
350.5409588724
  0
LINE
  5
3B4
330
3AE
100
AcDbEntity
  8
Default
  6
Continuous
 62
     7
 48
25.4
100
AcDbLine
 10
251.7579031255
 20
366.5945949651
 30
0.0
 11
308.8451119683
 21
366.5945949651
 31
0.0
  0
LINE
  5
3B5
330
3AE
100
AcDbEntity
  8
Default
  6
Continuous
 62
     7
 48
25.4
100
AcDbLine
 10
241.0856397388
 20
346.5409592517
 30
0.0
 11
308.8451119683
 21
346.5409592517
 31
0.0
  0
LINE
  5
3B6
330
3AE
100
AcDbEntity
  8
Default
  6
Continuous
 62
     7
 48
25.4
100
AcDbLine
 10
306.8451118733
 20
366.5945949651
 30
0.0
 11
306.8451118733
 21
346.5409586824
 31
0.0
  0
TEXT
  5
3B7
330
3AE
100
AcDbEntity
  8
Default
  6
Continuous
 62
     7
 48
25.4
100
AcDbText
 10
305.8451118733
 20
353.4373420411
 30
0.0
 40
4.0
  1
20
 50
90.0
  7
SEACAD_arial_ttf
 11
301.8451118733
 21
353.4373420411
 31
0.0
100
AcDbText
 73
     3
  0
ENDBLK
  5
3B9
330
3AE
100
AcDbEntity
  8
0
100
AcDbBlockEnd
  0
BLOCK
  5
3C6
330
3BA
100
AcDbEntity
  8
0
100
AcDbBlockBegin
  2
GDimGGroup24
 70
     0
 71
     0
 10
0.0
 20
0.0
 30
0.0
  3
GDimGGroup24
  1

  0
HATCH
  5
3BC
330
3BA
100
AcDbEntity
  8
Default
  6
Continuous
 62
     7
 48
25.4
100
AcDbHatch
 10
0.0
 20
0.0
 30
0.0
210
0.0
220
0.0
230
1.0
  2
SOLID
 70
     1
 71
     0
 91
        1
 92
        1
 93
        3
 72
     1
 10
307.5117789860645
 20
350.5409594416669
 11
306.1784455894012
 21
350.5409594416669
 72
     1
 10
306.1784455894012
 20
350.5409594416669
 11
306.8451122877328
 21
346.5409592516771
 72
     1
 10
306.8451122877328
 20
346.5409592516771
 11
307.5117789860645
 21
350.5409594416669
 97
        0
 75
     0
 76
     1
 98
        0
  0
LWPOLYLINE
  5
3BD
330
3BA
100
AcDbEntity
  8
Default
  6
Continuous
 62
     7
 48
25.4
370
    30
100
AcDbPolyline
 90
        4
 70
     1
 43
0.00035
 10
307.5117789861
 20
350.5409594417
 10
306.8451122877
 20
346.5409592517
 10
306.1784455894
 20
350.5409594417
 10
307.5117789861
 20
350.5409594417
  0
HATCH
  5
3BE
330
3BA
100
AcDbEntity
  8
Default
  6
Continuous
 62
     7
 48
25.4
100
AcDbHatch
 10
0.0
 20
0.0
 30
0.0
210
0.0
220
0.0
230
1.0
  2
SOLID
 70
     1
 71
     0
 91
        1
 92
        1
 93
        3
 72
     1
 10
307.5117789860645
 20
332.3549873696363
 11
306.8451122877328
 21
336.3549875596261
 72
     1
 10
306.8451122877328
 20
336.3549875596261
 11
306.1784455894012
 21
332.3549873696363
 72
     1
 10
306.1784455894012
 20
332.3549873696363
 11
307.5117789860645
 21
332.3549873696363
 97
        0
 75
     0
 76
     1
 98
        0
  0
LWPOLYLINE
  5
3BF
330
3BA
100
AcDbEntity
  8
Default
  6
Continuous
 62
     7
 48
25.4
370
    30
100
AcDbPolyline
 90
        4
 70
     1
 43
0.00035
 10
307.5117789861
 20
332.3549873696
 10
306.8451122877
 20
336.3549875596
 10
306.1784455894
 20
332.3549873696
 10
307.5117789861
 20
332.3549873696
  0
LINE
  5
3C0
330
3BA
100
AcDbEntity
  8
Default
  6
Continuous
 62
     7
 48
25.4
100
AcDbLine
 10
241.0856397388
 20
346.5409592517
 30
0.0
 11
308.8451123827
 21
346.5409592517
 31
0.0
  0
LINE
  5
3C1
330
3BA
100
AcDbEntity
  8
Default
  6
Continuous
 62
     7
 48
25.4
100
AcDbLine
 10
213.0856397388
 20
336.3549875596
 30
0.0
 11
308.8451123827
 21
336.3549875596
 31
0.0
  0
LINE
  5
3C2
330
3BA
100
AcDbEntity
  8
Default
  6
Continuous
 62
     7
 48
25.4
100
AcDbLine
 10
306.8451122877
 20
354.5409596317
 30
0.0
 11
306.8451122877
 21
278.7138313778
 31
0.0
  0
TEXT
  5
3C3
330
3BA
100
AcDbEntity
  8
Default
  6
Continuous
 62
     7
 48
25.4
100
AcDbText
 10
299.8451122877
 20
294.8268770555
 30
0.0
 40
4.0
  1
16.75
 50
90.0
  7
SEACAD_arial_ttf
 11
295.8451122877
 21
294.8268770555
 31
0.0
100
AcDbText
 73
     3
  0
TEXT
  5
3C4
330
3BA
100
AcDbEntity
  8
Default
  6
Continuous
 62
     7
 48
25.4
100
AcDbText
 10
299.8451122877
 20
280.1138335772
 30
0.0
 40
4.0
  1
MAX
 50
90.0
  7
SEACAD_arial_ttf
 11
295.8451122877
 21
280.1138335772
 31
0.0
100
AcDbText
 73
     3
  0
TEXT
  5
3C5
330
3BA
100
AcDbEntity
  8
Default
  6
Continuous
 62
     7
 48
25.4
100
AcDbText
 10
305.8451122877
 20
280.1138335772
 30
0.0
 40
4.0
  1
MIN 9.25
 50
90.0
  7
SEACAD_arial_ttf
 11
301.8451122877
 21
280.1138335772
 31
0.0
100
AcDbText
 73
     3
  0
ENDBLK
  5
3C7
330
3BA
100
AcDbEntity
  8
0
100
AcDbBlockEnd
  0
BLOCK
  5
3D4
330
3C8
100
AcDbEntity
  8
0
100
AcDbBlockBegin
  2
GDimGGroup25
 70
     0
 71
     0
 10
0.0
 20
0.0
 30
0.0
  3
GDimGGroup25
  1

  0
HATCH
  5
3CA
330
3C8
100
AcDbEntity
  8
Default
  6
Continuous
 62
     7
 48
25.4
100
AcDbHatch
 10
0.0
 20
0.0
 30
0.0
210
0.0
220
0.0
230
1.0
  2
SOLID
 70
     1
 71
     0
 91
        1
 92
        1
 93
        3
 72
     1
 10
284.3899152457151
 20
301.104987749616
 11
283.0565818490518
 21
301.104987749616
 72
     1
 10
283.0565818490518
 20
301.104987749616
 11
283.7232485473835
 21
297.1049875596262
 72
     1
 10
283.7232485473835
 20
297.1049875596262
 11
284.3899152457151
 21
301.104987749616
 97
        0
 75
     0
 76
     1
 98
        0
  0
LWPOLYLINE
  5
3CB
330
3C8
100
AcDbEntity
  8
Default
  6
Continuous
 62
     7
 48
25.4
370
    30
100
AcDbPolyline
 90
        4
 70
     1
 43
0.00035
 10
284.3899152457
 20
301.1049877496
 10
283.7232485474
 20
297.1049875596
 10
283.0565818491
 20
301.1049877496
 10
284.3899152457
 20
301.1049877496
  0
HATCH
  5
3CC
330
3C8
100
AcDbEntity
  8
Default
  6
Continuous
 62
     7
 48
25.4
100
AcDbHatch
 10
0.0
 20
0.0
 30
0.0
210
0.0
220
0.0
230
1.0
  2
SOLID
 70
     1
 71
     0
 91
        1
 92
        1
 93
        3
 72
     1
 10
284.3899152457151
 20
332.3549886809386
 11
283.7232485473835
 21
336.3549888709284
 72
     1
 10
283.7232485473835
 20
336.3549888709284
 11
283.0565818490518
 21
332.3549886809386
 72
     1
 10
283.0565818490518
 20
332.3549886809386
 11
284.3899152457151
 21
332.3549886809386
 97
        0
 75
     0
 76
     1
 98
        0
  0
LWPOLYLINE
  5
3CD
330
3C8
100
AcDbEntity
  8
Default
  6
Continuous
 62
     7
 48
25.4
370
    30
100
AcDbPolyline
 90
        4
 70
     1
 43
0.00035
 10
284.3899152457
 20
332.3549886809
 10
283.7232485474
 20
336.3549888709
 10
283.0565818491
 20
332.3549886809
 10
284.3899152457
 20
332.3549886809
  0
LINE
  5
3CE
330
3C8
100
AcDbEntity
  8
Default
  6
Continuous
 62
     7
 48
25.4
100
AcDbLine
 10
258.8058620752
 20
297.1049875596
 30
0.0
 11
285.7232486424
 21
297.1049875596
 31
0.0
  0
LINE
  5
3CF
330
3C8
100
AcDbEntity
  8
Default
  6
Continuous
 62
     7
 48
25.4
100
AcDbLine
 10
215.5856397388
 20
336.3549875596
 30
0.0
 11
285.7232486424
 21
336.3549875596
 31
0.0
  0
LINE
  5
3D0
330
3C8
100
AcDbEntity
  8
Default
  6
Continuous
 62
     7
 48
25.4
100
AcDbLine
 10
283.7232485474
 20
263.6404142359
 30
0.0
 11
283.7232485474
 21
336.3549888709
 31
0.0
  0
TEXT
  5
3D1
330
3C8
100
AcDbEntity
  8
Default
  6
Continuous
 62
     7
 48
25.4
100
AcDbText
 10
276.7232485474
 20
279.7534559555
 30
0.0
 40
4.0
  1
39.25
 50
90.0
  7
SEACAD_arial_ttf
 11
272.7232485474
 21
279.7534559555
 31
0.0
100
AcDbText
 73
     3
  0
TEXT
  5
3D2
330
3C8
100
AcDbEntity
  8
Default
  6
Continuous
 62
     7
 48
25.4
100
AcDbText
 10
276.7232485474
 20
265.0404124772
 30
0.0
 40
4.0
  1
MAX
 50
90.0
  7
SEACAD_arial_ttf
 11
272.7232485474
 21
265.0404124772
 31
0.0
100
AcDbText
 73
     3
  0
TEXT
  5
3D3
330
3C8
100
AcDbEntity
  8
Default
  6
Continuous
 62
     7
 48
25.4
100
AcDbText
 10
282.7232485474
 20
265.0404124772
 30
0.0
 40
4.0
  1
MIN 29.25
 50
90.0
  7
SEACAD_arial_ttf
 11
278.7232485474
 21
265.0404124772
 31
0.0
100
AcDbText
 73
     3
  0
ENDBLK
  5
3D5
330
3C8
100
AcDbEntity
  8
0
100
AcDbBlockEnd
  0
BLOCK
  5
3E1
330
3D6
100
AcDbEntity
  8
0
100
AcDbBlockBegin
  2
GDimGGroup26
 70
     0
 71
     0
 10
0.0
 20
0.0
 30
0.0
  3
GDimGGroup26
  1

  0
HATCH
  5
3D8
330
3D6
100
AcDbEntity
  8
Default
  6
Continuous
 62
     7
 48
25.4
100
AcDbHatch
 10
0.0
 20
0.0
 30
0.0
210
0.0
220
0.0
230
1.0
  2
SOLID
 70
     1
 71
     0
 91
        1
 92
        1
 93
        3
 72
     1
 10
17.34481532559569
 20
218.604987749616
 11
18.01148202392733
 21
214.6049875596262
 72
     1
 10
18.01148202392733
 20
214.6049875596262
 11
18.67814872225896
 21
218.604987749616
 72
     1
 10
18.67814872225896
 20
218.604987749616
 11
17.34481532559569
 21
218.604987749616
 97
        0
 75
     0
 76
     1
 98
        0
  0
LWPOLYLINE
  5
3D9
330
3D6
100
AcDbEntity
  8
Default
  6
Continuous
 62
     7
 48
25.4
370
    30
100
AcDbPolyline
 90
        4
 70
     1
 43
0.00035
 10
17.3448153256
 20
218.6049877496
 10
18.0114820239
 20
214.6049875596
 10
18.6781487223
 20
218.6049877496
 10
17.3448153256
 20
218.6049877496
  0
HATCH
  5
3DA
330
3D6
100
AcDbEntity
  8
Default
  6
Continuous
 62
     7
 48
25.4
100
AcDbHatch
 10
0.0
 20
0.0
 30
0.0
210
0.0
220
0.0
230
1.0
  2
SOLID
 70
     1
 71
     0
 91
        1
 92
        1
 93
        3
 72
     1
 10
17.34481532559569
 20
375.6049939261472
 11
18.67814872225896
 21
375.6049939261472
 72
     1
 10
18.67814872225896
 20
375.6049939261472
 11
18.01148202392733
 21
379.6049941161371
 72
     1
 10
18.01148202392733
 20
379.6049941161371
 11
17.34481532559569
 21
375.6049939261472
 97
        0
 75
     0
 76
     1
 98
        0
  0
LWPOLYLINE
  5
3DB
330
3D6
100
AcDbEntity
  8
Default
  6
Continuous
 62
     7
 48
25.4
370
    30
100
AcDbPolyline
 90
        4
 70
     1
 43
0.00035
 10
17.3448153256
 20
375.6049939261
 10
18.0114820239
 20
379.6049941161
 10
18.6781487223
 20
375.6049939261
 10
17.3448153256
 20
375.6049939261
  0
LINE
  5
3DC
330
3D6
100
AcDbEntity
  8
Default
  6
Continuous
 62
     7
 48
25.4
100
AcDbLine
 10
133.0856397388
 20
214.6049875596
 30
0.0
 11
16.0114819289
 21
214.6049875596
 31
0.0
  0
LINE
  5
3DD
330
3D6
100
AcDbEntity
  8
Default
  6
Continuous
 62
     7
 48
25.4
100
AcDbLine
 10
133.0856397388
 20
379.6049875596
 30
0.0
 11
16.0114819289
 21
379.6049875596
 31
0.0
  0
LINE
  5
3DE
330
3D6
100
AcDbEntity
  8
Default
  6
Continuous
 62
     7
 48
25.4
100
AcDbLine
 10
18.0114820239
 20
214.6049875596
 30
0.0
 11
18.0114820239
 21
379.6049941161
 31
0.0
  0
TEXT
  5
3DF
330
3D6
100
AcDbEntity
  8
Default
  6
Continuous
 62
     7
 48
25.4
100
AcDbText
 10
17.0114820239
 20
296.0900404184
 30
0.0
 40
4.0
  1
165
 50
90.0
  7
SEACAD_arial_ttf
 11
13.0114820239
 21
296.0900404184
 31
0.0
100
AcDbText
 73
     3
  0
TEXT
  5
3E0
330
3D6
100
AcDbEntity
  8
Default
  6
Continuous
 62
     7
 48
25.4
100
AcDbText
 10
17.0114820239
 20
288.7286369096
 30
0.0
 40
4.0
  1
O
 50
90.0
  7
SEACAD_semeca1_ttf
 11
13.0114820239
 21
288.7286369096
 31
0.0
100
AcDbText
 73
     3
  0
ENDBLK
  5
3E2
330
3D6
100
AcDbEntity
  8
0
100
AcDbBlockEnd
  0
BLOCK
  5
3EE
330
3E3
100
AcDbEntity
  8
0
100
AcDbBlockBegin
  2
GDimGGroup27
 70
     0
 71
     0
 10
0.0
 20
0.0
 30
0.0
  3
GDimGGroup27
  1

  0
HATCH
  5
3E5
330
3E3
100
AcDbEntity
  8
Default
  6
Continuous
 62
     7
 48
25.4
100
AcDbHatch
 10
0.0
 20
0.0
 30
0.0
210
0.0
220
0.0
230
1.0
  2
SOLID
 70
     1
 71
     0
 91
        1
 92
        1
 93
        3
 72
     1
 10
72.69593297438105
 20
266.1049877496159
 11
73.36259967271269
 21
262.1049875596261
 72
     1
 10
73.36259967271269
 20
262.1049875596261
 11
74.02926637104433
 21
266.1049877496159
 72
     1
 10
74.02926637104433
 20
266.1049877496159
 11
72.69593297438105
 21
266.1049877496159
 97
        0
 75
     0
 76
     1
 98
        0
  0
LWPOLYLINE
  5
3E6
330
3E3
100
AcDbEntity
  8
Default
  6
Continuous
 62
     7
 48
25.4
370
    30
100
AcDbPolyline
 90
        4
 70
     1
 43
0.00035
 10
72.6959329744
 20
266.1049877496
 10
73.3625996727
 20
262.1049875596
 10
74.029266371
 20
266.1049877496
 10
72.6959329744
 20
266.1049877496
  0
HATCH
  5
3E7
330
3E3
100
AcDbEntity
  8
Default
  6
Continuous
 62
     7
 48
25.4
100
AcDbHatch
 10
0.0
 20
0.0
 30
0.0
210
0.0
220
0.0
230
1.0
  2
SOLID
 70
     1
 71
     0
 91
        1
 92
        1
 93
        3
 72
     1
 10
72.69593297438105
 20
328.1049876676595
 11
74.02926637104433
 21
328.1049876676595
 72
     1
 10
74.02926637104433
 20
328.1049876676595
 11
73.36259967271269
 21
332.1049878576494
 72
     1
 10
73.36259967271269
 20
332.1049878576494
 11
72.69593297438105
 21
328.1049876676595
 97
        0
 75
     0
 76
     1
 98
        0
  0
LWPOLYLINE
  5
3E8
330
3E3
100
AcDbEntity
  8
Default
  6
Continuous
 62
     7
 48
25.4
370
    30
100
AcDbPolyline
 90
        4
 70
     1
 43
0.00035
 10
72.6959329744
 20
328.1049876677
 10
73.3625996727
 20
332.1049878576
 10
74.029266371
 20
328.1049876677
 10
72.6959329744
 20
328.1049876677
  0
LINE
  5
3E9
330
3E3
100
AcDbEntity
  8
Default
  6
Continuous
 62
     7
 48
25.4
100
AcDbLine
 10
136.0856402535
 20
262.1049875596
 30
0.0
 11
71.3625995777
 21
262.1049875596
 31
0.0
  0
LINE
  5
3EA
330
3E3
100
AcDbEntity
  8
Default
  6
Continuous
 62
     7
 48
25.4
100
AcDbLine
 10
136.0856402535
 20
332.1049875596
 30
0.0
 11
71.3625995777
 21
332.1049875596
 31
0.0
  0
LINE
  5
3EB
330
3E3
100
AcDbEntity
  8
Default
  6
Continuous
 62
     7
 48
25.4
100
AcDbLine
 10
73.3625996727
 20
262.1049875596
 30
0.0
 11
73.3625996727
 21
332.1049878576
 31
0.0
  0
TEXT
  5
3EC
330
3E3
100
AcDbEntity
  8
Default
  6
Continuous
 62
     7
 48
25.4
100
AcDbText
 10
72.3625996727
 20
297.6552546804
 30
0.0
 40
4.0
  1
70
 50
90.0
  7
SEACAD_arial_ttf
 11
68.3625996727
 21
297.6552546804
 31
0.0
100
AcDbText
 73
     3
  0
TEXT
  5
3ED
330
3E3
100
AcDbEntity
  8
Default
  6
Continuous
 62
     7
 48
25.4
100
AcDbText
 10
72.3625996727
 20
290.2938511716
 30
0.0
 40
4.0
  1
O
 50
90.0
  7
SEACAD_semeca1_ttf
 11
68.3625996727
 21
290.2938511716
 31
0.0
100
AcDbText
 73
     3
  0
ENDBLK
  5
3EF
330
3E3
100
AcDbEntity
  8
0
100
AcDbBlockEnd
  0
BLOCK
  5
3FB
330
3F0
100
AcDbEntity
  8
0
100
AcDbBlockBegin
  2
GDimGGroup28
 70
     0
 71
     0
 10
0.0
 20
0.0
 30
0.0
  3
GDimGGroup28
  1

  0
HATCH
  5
3F2
330
3F0
100
AcDbEntity
  8
Default
  6
Continuous
 62
     7
 48
25.4
100
AcDbHatch
 10
0.0
 20
0.0
 30
0.0
210
0.0
220
0.0
230
1.0
  2
SOLID
 70
     1
 71
     0
 91
        1
 92
        1
 93
        3
 72
     1
 10
89.21865721539936
 20
278.6049877496159
 11
89.885323913731
 21
274.6049875596261
 72
     1
 10
89.885323913731
 20
274.6049875596261
 11
90.55199061206264
 21
278.6049877496159
 72
     1
 10
90.55199061206264
 20
278.6049877496159
 11
89.21865721539936
 21
278.6049877496159
 97
        0
 75
     0
 76
     1
 98
        0
  0
LWPOLYLINE
  5
3F3
330
3F0
100
AcDbEntity
  8
Default
  6
Continuous
 62
     7
 48
25.4
370
    30
100
AcDbPolyline
 90
        4
 70
     1
 43
0.00035
 10
89.2186572154
 20
278.6049877496
 10
89.8853239137
 20
274.6049875596
 10
90.5519906121
 20
278.6049877496
 10
89.2186572154
 20
278.6049877496
  0
HATCH
  5
3F4
330
3F0
100
AcDbEntity
  8
Default
  6
Continuous
 62
     7
 48
25.4
100
AcDbHatch
 10
0.0
 20
0.0
 30
0.0
210
0.0
220
0.0
230
1.0
  2
SOLID
 70
     1
 71
     0
 91
        1
 92
        1
 93
        3
 72
     1
 10
89.21865721539936
 20
315.6049891577757
 11
90.55199061206264
 21
315.6049891577757
 72
     1
 10
90.55199061206264
 20
315.6049891577757
 11
89.885323913731
 21
319.6049893477655
 72
     1
 10
89.885323913731
 20
319.6049893477655
 11
89.21865721539936
 21
315.6049891577757
 97
        0
 75
     0
 76
     1
 98
        0
  0
LWPOLYLINE
  5
3F5
330
3F0
100
AcDbEntity
  8
Default
  6
Continuous
 62
     7
 48
25.4
370
    30
100
AcDbPolyline
 90
        4
 70
     1
 43
0.00035
 10
89.2186572154
 20
315.6049891578
 10
89.8853239137
 20
319.6049893478
 10
90.5519906121
 20
315.6049891578
 10
89.2186572154
 20
315.6049891578
  0
LINE
  5
3F6
330
3F0
100
AcDbEntity
  8
Default
  6
Continuous
 62
     7
 48
25.4
100
AcDbLine
 10
147.0856402535
 20
274.6049875596
 30
0.0
 11
87.8853238187
 21
274.6049875596
 31
0.0
  0
LINE
  5
3F7
330
3F0
100
AcDbEntity
  8
Default
  6
Continuous
 62
     7
 48
25.4
100
AcDbLine
 10
147.0856402535
 20
319.6049875596
 30
0.0
 11
87.8853238187
 21
319.6049875596
 31
0.0
  0
LINE
  5
3F8
330
3F0
100
AcDbEntity
  8
Default
  6
Continuous
 62
     7
 48
25.4
100
AcDbLine
 10
89.8853239137
 20
274.6049875596
 30
0.0
 11
89.8853239137
 21
319.6049893478
 31
0.0
  0
TEXT
  5
3F9
330
3F0
100
AcDbEntity
  8
Default
  6
Continuous
 62
     7
 48
25.4
100
AcDbText
 10
88.8853239137
 20
297.6552554255
 30
0.0
 40
4.0
  1
45
 50
90.0
  7
SEACAD_arial_ttf
 11
84.8853239137
 21
297.6552554255
 31
0.0
100
AcDbText
 73
     3
  0
TEXT
  5
3FA
330
3F0
100
AcDbEntity
  8
Default
  6
Continuous
 62
     7
 48
25.4
100
AcDbText
 10
88.8853239137
 20
290.2938519167
 30
0.0
 40
4.0
  1
O
 50
90.0
  7
SEACAD_semeca1_ttf
 11
84.8853239137
 21
290.2938519167
 31
0.0
100
AcDbText
 73
     3
  0
ENDBLK
  5
3FC
330
3F0
100
AcDbEntity
  8
0
100
AcDbBlockEnd
  0
BLOCK
  5
406
330
3FD
100
AcDbEntity
  8
0
100
AcDbBlockBegin
  2
GDimGGroup29
 70
     0
 71
     0
 10
0.0
 20
0.0
 30
0.0
  3
GDimGGroup29
  1

  0
HATCH
  5
3FF
330
3FD
100
AcDbEntity
  8
Default
  6
Continuous
 62
     7
 48
25.4
100
AcDbHatch
 10
0.0
 20
0.0
 30
0.0
210
0.0
220
0.0
230
1.0
  2
SOLID
 70
     1
 71
     0
 91
        1
 92
        1
 93
        3
 72
     1
 10
195.058217017564
 20
287.104987749616
 11
193.7248836209007
 21
287.104987749616
 72
     1
 10
193.7248836209007
 20
287.104987749616
 11
194.3915503192324
 21
283.1049875596262
 72
     1
 10
194.3915503192324
 20
283.1049875596262
 11
195.058217017564
 21
287.104987749616
 97
        0
 75
     0
 76
     1
 98
        0
  0
LWPOLYLINE
  5
400
330
3FD
100
AcDbEntity
  8
Default
  6
Continuous
 62
     7
 48
25.4
370
    30
100
AcDbPolyline
 90
        4
 70
     1
 43
0.00035
 10
195.0582170176
 20
287.1049877496
 10
194.3915503192
 20
283.1049875596
 10
193.7248836209
 20
287.1049877496
 10
195.0582170176
 20
287.1049877496
  0
HATCH
  5
401
330
3FD
100
AcDbEntity
  8
Default
  6
Continuous
 62
     7
 48
25.4
100
AcDbHatch
 10
0.0
 20
0.0
 30
0.0
210
0.0
220
0.0
230
1.0
  2
SOLID
 70
     1
 71
     0
 91
        1
 92
        1
 93
        3
 72
     1
 10
195.058217017564
 20
307.1049882339037
 11
194.3915503192324
 21
311.1049884238935
 72
     1
 10
194.3915503192324
 20
311.1049884238935
 11
193.7248836209007
 21
307.1049882339037
 72
     1
 10
193.7248836209007
 20
307.1049882339037
 11
195.058217017564
 21
307.1049882339037
 97
        0
 75
     0
 76
     1
 98
        0
  0
LWPOLYLINE
  5
402
330
3FD
100
AcDbEntity
  8
Default
  6
Continuous
 62
     7
 48
25.4
370
    30
100
AcDbPolyline
 90
        4
 70
     1
 43
0.00035
 10
195.0582170176
 20
307.1049882339
 10
194.3915503192
 20
311.1049884239
 10
193.7248836209
 20
307.1049882339
 10
195.0582170176
 20
307.1049882339
  0
LINE
  5
403
330
3FD
100
AcDbEntity
  8
Default
  6
Continuous
 62
     7
 48
25.4
100
AcDbLine
 10
194.3915503192
 20
283.1049875596
 30
0.0
 11
194.3915503192
 21
311.1049884239
 31
0.0
  0
TEXT
  5
404
330
3FD
100
AcDbEntity
  8
Default
  6
Continuous
 62
     7
 48
25.4
100
AcDbText
 10
193.3915503192
 20
297.6552549635
 30
0.0
 40
4.0
  1
28
 50
90.0
  7
SEACAD_arial_ttf
 11
189.3915503192
 21
297.6552549635
 31
0.0
100
AcDbText
 73
     3
  0
TEXT
  5
405
330
3FD
100
AcDbEntity
  8
Default
  6
Continuous
 62
     7
 48
25.4
100
AcDbText
 10
193.3915503192
 20
290.2938514548
 30
0.0
 40
4.0
  1
O
 50
90.0
  7
SEACAD_semeca1_ttf
 11
189.3915503192
 21
290.2938514548
 31
0.0
100
AcDbText
 73
     3
  0
ENDBLK
  5
407
330
3FD
100
AcDbEntity
  8
0
100
AcDbBlockEnd
  0
BLOCK
  5
414
330
408
100
AcDbEntity
  8
0
100
AcDbBlockBegin
  2
GDimGGroup30
 70
     0
 71
     0
 10
0.0
 20
0.0
 30
0.0
  3
GDimGGroup30
  1

  0
HATCH
  5
40A
330
408
100
AcDbEntity
  8
Default
  6
Continuous
 62
     7
 48
25.4
100
AcDbHatch
 10
0.0
 20
0.0
 30
0.0
210
0.0
220
0.0
230
1.0
  2
SOLID
 70
     1
 71
     0
 91
        1
 92
        1
 93
        3
 72
     1
 10
55.86174458485289
 20
350.4436003462549
 11
55.91250140253928
 21
346.3887427961008
 72
     1
 10
55.91250140253928
 20
346.3887427961008
 11
57.17957713180482
 21
350.2408805276583
 72
     1
 10
57.17957713180482
 20
350.2408805276584
 11
55.86174458485289
 21
350.4436003462549
 97
        0
 75
     0
 76
     1
 98
        0
  0
LWPOLYLINE
  5
40B
330
408
100
AcDbEntity
  8
Default
  6
Continuous
 62
     7
 48
25.4
370
    30
100
AcDbPolyline
 90
        4
 70
     1
 43
0.00035
 10
55.8617445849
 20
350.4436003463
 10
55.9125014025
 20
346.3887427961
 10
57.1795771318
 20
350.2408805277
 10
55.8617445849
 20
350.4436003463
  0
HATCH
  5
40C
330
408
100
AcDbEntity
  8
Default
  6
Continuous
 62
     7
 48
25.4
100
AcDbHatch
 10
0.0
 20
0.0
 30
0.0
210
0.0
220
0.0
230
1.0
  2
SOLID
 70
     1
 71
     0
 91
        1
 92
        1
 93
        3
 72
     1
 10
56.21123615378787
 20
334.4086453925465
 11
55.42306250516356
 21
338.3864875596261
 72
     1
 10
55.42306250516356
 20
338.3864875596261
 11
54.87852119967422
 21
334.368040002024
 72
     1
 10
54.87852119967422
 20
334.368040002024
 11
56.21123615378787
 21
334.4086453925465
 97
        0
 75
     0
 76
     1
 98
        0
  0
LWPOLYLINE
  5
40D
330
408
100
AcDbEntity
  8
Default
  6
Continuous
 62
     7
 48
25.4
370
    30
100
AcDbPolyline
 90
        4
 70
     1
 43
0.00035
 10
56.2112361538
 20
334.4086453925
 10
55.4230625052
 20
338.3864875596
 10
54.8785211997
 20
334.368040002
 10
56.2112361538
 20
334.4086453925
  0
LINE
  5
40E
330
408
100
AcDbEntity
  8
Default
  6
Continuous
 62
     7
 48
25.4
100
AcDbLine
 10
131.0856399051
 20
337.1586419934
 30
0.0
 11
53.9274124714
 21
346.6324810689
 31
0.0
  0
LINE
  5
40F
330
408
100
AcDbEntity
  8
Default
  6
Continuous
 62
     7
 48
25.4
100
AcDbLine
 10
121.0856402535
 20
338.3864875596
 30
0.0
 11
53.4230659026
 21
338.3864875596
 31
0.0
  0
ARC
  5
410
330
408
100
AcDbEntity
  8
Default
  6
Continuous
 62
     7
 48
25.4
100
AcDbCircle
 10
121.0856402535
 20
338.3864875596
 30
0.0
 40
65.66257774829784
100
AcDbArc
 50
166.0193686564
 51
180.0000000525
  0
ARC
  5
411
330
408
100
AcDbEntity
  8
Default
  6
Continuous
 62
     7
 48
25.4
100
AcDbCircle
 10
121.0856402535
 20
338.3864875596
 30
0.0
 40
65.66257774829828
100
AcDbArc
 50
180.0
 51
186.9806313436
  0
TEXT
  5
412
330
408
100
AcDbEntity
  8
Default
  6
Continuous
 62
     7
 48
25.4
100
AcDbText
 10
53.9178054079
 20
332.1623329995
 30
0.0
 40
4.0
  1
7°
 50
86.5
  7
SEACAD_arial_ttf
 11
49.9252662142
 21
332.4065271576
 31
0.0
100
AcDbText
 73
     3
  0
TEXT
  5
413
330
408
100
AcDbEntity
  8
Default
  6
Continuous
 62
     7
 48
25.4
100
AcDbText
 10
54.4178725752
 20
340.3383589135
 30
0.0
 40
4.0
  1
7'30"
 50
86.5
  7
SEACAD_arial_ttf
 11
50.4253333815
 21
340.5825530717
 31
0.0
100
AcDbText
 73
     3
  0
ENDBLK
  5
415
330
408
100
AcDbEntity
  8
0
100
AcDbBlockEnd
  0
ENDSEC
  0
SECTION
  2
ENTITIES
  0
INSERT
  5
2C
330
1F
100
AcDbEntity
  8
Default
100
AcDbBlockReference
  2
SEANNOT_GROUP
 10
0.0
 20
0.0
 30
0.0
  0
INSERT
  5
38
330
1F
100
AcDbEntity
  8
Default
100
AcDbBlockReference
  2
SEANNOT_GROUP1
 10
0.0
 20
0.0
 30
0.0
  0
INSERT
  5
42
330
1F
100
AcDbEntity
  8
Default
100
AcDbBlockReference
  2
SEANNOT_GROUP2
 10
0.0
 20
0.0
 30
0.0
  0
INSERT
  5
4B
330
1F
100
AcDbEntity
  8
Default
100
AcDbBlockReference
  2
SEANNOT_GROUP3
 10
0.0
 20
0.0
 30
0.0
  0
INSERT
  5
54
330
1F
100
AcDbEntity
  8
Default
100
AcDbBlockReference
  2
SEANNOT_GROUP4
 10
0.0
 20
0.0
 30
0.0
  0
INSERT
  5
5D
330
1F
100
AcDbEntity
  8
Default
100
AcDbBlockReference
  2
SE
 10
0.0
 20
0.0
 30
0.0
  0
INSERT
  5
121
330
1F
100
AcDbEntity
  8
Default
100
AcDbBlockReference
  2
GDimGGroup
 10
0.0
 20
0.0
 30
0.0
  0
INSERT
  5
12D
330
1F
100
AcDbEntity
  8
Default
100
AcDbBlockReference
  2
SE1
 10
0.0
 20
0.0
 30
0.0
  0
INSERT
  5
21A
330
1F
100
AcDbEntity
  8
Default
100
AcDbBlockReference
  2
GDimGGroup1
 10
0.0
 20
0.0
 30
0.0
  0
INSERT
  5
226
330
1F
100
AcDbEntity
  8
Default
100
AcDbBlockReference
  2
GDimGGroup2
 10
0.0
 20
0.0
 30
0.0
  0
INSERT
  5
232
330
1F
100
AcDbEntity
  8
Default
100
AcDbBlockReference
  2
GDimGGroup3
 10
0.0
 20
0.0
 30
0.0
  0
INSERT
  5
23F
330
1F
100
AcDbEntity
  8
Default
100
AcDbBlockReference
  2
GDimGGroup4
 10
0.0
 20
0.0
 30
0.0
  0
INSERT
  5
24D
330
1F
100
AcDbEntity
  8
Default
100
AcDbBlockReference
  2
GDimGGroup5
 10
0.0
 20
0.0
 30
0.0
  0
INSERT
  5
259
330
1F
100
AcDbEntity
  8
Default
100
AcDbBlockReference
  2
GDimGGroup6
 10
0.0
 20
0.0
 30
0.0
  0
INSERT
  5
265
330
1F
100
AcDbEntity
  8
Default
100
AcDbBlockReference
  2
SE2
 10
0.0
 20
0.0
 30
0.0
  0
INSERT
  5
2F2
330
1F
100
AcDbEntity
  8
Default
100
AcDbBlockReference
  2
GDimGGroup7
 10
0.0
 20
0.0
 30
0.0
  0
INSERT
  5
2FE
330
1F
100
AcDbEntity
  8
Default
100
AcDbBlockReference
  2
GDimGGroup8
 10
0.0
 20
0.0
 30
0.0
  0
INSERT
  5
30B
330
1F
100
AcDbEntity
  8
Default
100
AcDbBlockReference
  2
GDimGGroup9
 10
0.0
 20
0.0
 30
0.0
  0
INSERT
  5
317
330
1F
100
AcDbEntity
  8
Default
100
AcDbBlockReference
  2
GDimGGroup10
 10
0.0
 20
0.0
 30
0.0
  0
INSERT
  5
323
330
1F
100
AcDbEntity
  8
Default
100
AcDbBlockReference
  2
GDimGGroup11
 10
0.0
 20
0.0
 30
0.0
  0
INSERT
  5
32F
330
1F
100
AcDbEntity
  8
Default
100
AcDbBlockReference
  2
GDimGGroup12
 10
0.0
 20
0.0
 30
0.0
  0
INSERT
  5
33B
330
1F
100
AcDbEntity
  8
Default
100
AcDbBlockReference
  2
GDimGGroup13
 10
0.0
 20
0.0
 30
0.0
  0
INSERT
  5
347
330
1F
100
AcDbEntity
  8
Default
100
AcDbBlockReference
  2
GDimGGroup14
 10
0.0
 20
0.0
 30
0.0
  0
INSERT
  5
352
330
1F
100
AcDbEntity
  8
Default
100
AcDbBlockReference
  2
GDimGGroup15
 10
0.0
 20
0.0
 30
0.0
  0
INSERT
  5
35F
330
1F
100
AcDbEntity
  8
Default
100
AcDbBlockReference
  2
GDimGGroup16
 10
0.0
 20
0.0
 30
0.0
  0
INSERT
  5
36A
330
1F
100
AcDbEntity
  8
Default
100
AcDbBlockReference
  2
GDimGGroup17
 10
0.0
 20
0.0
 30
0.0
  0
INSERT
  5
376
330
1F
100
AcDbEntity
  8
Default
100
AcDbBlockReference
  2
GDimGGroup18
 10
0.0
 20
0.0
 30
0.0
  0
INSERT
  5
382
330
1F
100
AcDbEntity
  8
Default
100
AcDbBlockReference
  2
GDimGGroup19
 10
0.0
 20
0.0
 30
0.0
  0
INSERT
  5
38D
330
1F
100
AcDbEntity
  8
Default
100
AcDbBlockReference
  2
GDimGGroup20
 10
0.0
 20
0.0
 30
0.0
  0
INSERT
  5
399
330
1F
100
AcDbEntity
  8
Default
100
AcDbBlockReference
  2
GDimGGroup21
 10
0.0
 20
0.0
 30
0.0
  0
INSERT
  5
3A3
330
1F
100
AcDbEntity
  8
Default
100
AcDbBlockReference
  2
GDimGGroup22
 10
0.0
 20
0.0
 30
0.0
  0
INSERT
  5
3AF
330
1F
100
AcDbEntity
  8
Default
100
AcDbBlockReference
  2
GDimGGroup23
 10
0.0
 20
0.0
 30
0.0
  0
INSERT
  5
3BB
330
1F
100
AcDbEntity
  8
Default
100
AcDbBlockReference
  2
GDimGGroup24
 10
0.0
 20
0.0
 30
0.0
  0
INSERT
  5
3C9
330
1F
100
AcDbEntity
  8
Default
100
AcDbBlockReference
  2
GDimGGroup25
 10
0.0
 20
0.0
 30
0.0
  0
INSERT
  5
3D7
330
1F
100
AcDbEntity
  8
Default
100
AcDbBlockReference
  2
GDimGGroup26
 10
0.0
 20
0.0
 30
0.0
  0
INSERT
  5
3E4
330
1F
100
AcDbEntity
  8
Default
100
AcDbBlockReference
  2
GDimGGroup27
 10
0.0
 20
0.0
 30
0.0
  0
INSERT
  5
3F1
330
1F
100
AcDbEntity
  8
Default
100
AcDbBlockReference
  2
GDimGGroup28
 10
0.0
 20
0.0
 30
0.0
  0
INSERT
  5
3FE
330
1F
100
AcDbEntity
  8
Default
100
AcDbBlockReference
  2
GDimGGroup29
 10
0.0
 20
0.0
 30
0.0
  0
INSERT
  5
409
330
1F
100
AcDbEntity
  8
Default
100
AcDbBlockReference
  2
GDimGGroup30
 10
0.0
 20
0.0
 30
0.0
  0
LINE
  5
417
330
1F
100
AcDbEntity
  8
BORDER
  6
Continuous
 62
     7
 48
25.4
100
AcDbLine
 10
6.2292620399
 20
410.0
 30
0.0
 11
586.2292620399
 21
410.0
 31
0.0
  0
LINE
  5
418
330
1F
100
AcDbEntity
  8
BORDER
  6
Continuous
 62
     7
 48
25.4
100
AcDbLine
 10
6.2292620399
 20
410.0
 30
0.0
 11
6.2292620399
 21
10.0
 31
0.0
  0
LINE
  5
419
330
1F
100
AcDbEntity
  8
BORDER
  6
Continuous
 62
     7
 48
25.4
100
AcDbLine
 10
6.2292620399
 20
10.0
 30
0.0
 11
586.2292620399
 21
10.0
 31
0.0
  0
LINE
  5
41A
330
1F
100
AcDbEntity
  8
BORDER
  6
Continuous
 62
     7
 48
25.4
100
AcDbLine
 10
586.2292620399
 20
10.0
 30
0.0
 11
586.2292620399
 21
410.0
 31
0.0
  0
LINE
  5
41B
330
1F
100
AcDbEntity
  8
Default
  6
Continuous
 62
     7
 48
25.4
100
AcDbLine
 10
3.7292620399
 20
412.5
 30
0.0
 11
588.7292620399
 21
412.5
 31
0.0
  0
LINE
  5
41C
330
1F
100
AcDbEntity
  8
Default
  6
Continuous
 62
     7
 48
25.4
100
AcDbLine
 10
588.7292620399
 20
412.5
 30
0.0
 11
588.7292620399
 21
7.5
 31
0.0
  0
LINE
  5
41D
330
1F
100
AcDbEntity
  8
Default
  6
Continuous
 62
     7
 48
25.4
100
AcDbLine
 10
588.7292620399
 20
7.5
 30
0.0
 11
3.7292620399
 21
7.5
 31
0.0
  0
LINE
  5
41E
330
1F
100
AcDbEntity
  8
Default
  6
Continuous
 62
     7
 48
25.4
100
AcDbLine
 10
3.7292620399
 20
7.5
 30
0.0
 11
3.7292620399
 21
412.5
 31
0.0
  0
TEXT
  5
41F
330
1F
100
AcDbEntity
  8
Default
  6
Continuous
 62
     7
 48
25.4
100
AcDbText
 10
473.5242219525
 20
28.1561611714
 30
0.0
 40
5.0
  1
TITLE :
  7
SEACAD_arial_ttf
 11
473.5242219525
 21
33.1561611714
 31
0.0
100
AcDbText
 73
     3
  0
TEXT
  5
420
330
1F
100
AcDbEntity
  8
Default
  6
Continuous
 62
     7
 48
25.4
100
AcDbText
 10
473.4498030642
 20
40.2710242694
 30
0.0
 40
5.0
  1
KITAGAWA EUROPE LIMITED
  7
SEACAD_arial_ttf
 11
473.4498030642
 21
45.2710242694
 31
0.0
100
AcDbText
 73
     3
  0
TEXT
  5
421
330
1F
100
AcDbEntity
  8
Default
  6
Continuous
 62
     7
 48
25.4
100
AcDbText
 10
474.4044215056
 20
15.7611952147
 30
0.0
 40
5.0
  1
www.kitagawaeurope.com
  7
SEACAD_arial_ttf
 11
474.4044215056
 21
20.7611952147
 31
0.0
100
AcDbText
 73
     3
  0
TEXT
  5
422
330
1F
100
AcDbEntity
  8
Default
  6
Continuous
 62
     7
 48
25.4
100
AcDbText
 10
497.8463064412
 20
27.8559210467
 30
0.0
 40
5.0
  1
BL206A5 POWER CHUCK
  7
SEACAD_arial_ttf
 11
497.8463064412
 21
32.8559210467
 31
0.0
100
AcDbText
 73
     3
  0
LINE
  5
423
330
1F
100
AcDbEntity
  8
Default
  6
Continuous
 62
     7
 48
25.4
100
AcDbLine
 10
471.5030858285
 20
50.0
 30
0.0
 11
586.2292620399
 21
50.0
 31
0.0
  0
LINE
  5
424
330
1F
100
AcDbEntity
  8
Default
  6
Continuous
 62
     7
 48
25.4
100
AcDbLine
 10
471.5030858285
 20
36.7
 30
0.0
 11
586.2292620399
 21
36.7
 31
0.0
  0
LINE
  5
425
330
1F
100
AcDbEntity
  8
Default
  6
Continuous
 62
     7
 48
25.4
100
AcDbLine
 10
586.2292620399
 20
23.4
 30
0.0
 11
471.5030858285
 21
23.4
 31
0.0
  0
LINE
  5
426
330
1F
100
AcDbEntity
  8
Default
  6
Continuous
 62
     7
 48
25.4
100
AcDbLine
 10
471.5030858285
 20
50.0
 30
0.0
 11
471.5030858285
 21
10.0
 31
0.0
  0
ENDSEC
  0
SECTION
  2
OBJECTS
  0
DICTIONARY
  5
C
330
0
100
AcDbDictionary
281
     1
  3
ACAD_GROUP
350
D
  3
ACAD_LAYOUT
350
1A
  3
ACAD_MLINESTYLE
350
17
  3
ACAD_PLOTSETTINGS
350
19
  3
ACAD_PLOTSTYLENAME
350
E
  0
DICTIONARY
  5
D
102
{ACAD_REACTORS
330
C
102
}
330
C
100
AcDbDictionary
281
     1
  0
DICTIONARY
  5
1A
102
{ACAD_REACTORS
330
C
102
}
330
C
100
AcDbDictionary
281
     1
  3
Layout1
350
1E
  3
Model
350
22
  0
DICTIONARY
  5
17
102
{ACAD_REACTORS
330
C
102
}
330
C
100
AcDbDictionary
281
     1
  3
Standard
350
18
  0
DICTIONARY
  5
19
102
{ACAD_REACTORS
330
C
102
}
330
C
100
AcDbDictionary
281
     1
  0
ACDBDICTIONARYWDFLT
  5
E
102
{ACAD_REACTORS
330
C
102
}
330
C
100
AcDbDictionary
281
     1
  3
Normal
350
F
100
AcDbDictionaryWithDefault
340
F
  0
LAYOUT
  5
1E
102
{ACAD_REACTORS
330
1A
102
}
330
1A
100
AcDbPlotSettings
  1

  2

  4

  6

 40
0.0
 41
0.0
 42
0.0
 43
0.0
 44
0.0
 45
0.0
 46
0.0
 47
0.0
 48
0.0
 49
0.0
140
0.0
141
0.0
142
1.0
143
1.0
 70
   688
 72
     0
 73
     0
 74
     5
  7

 75
    16
147
1.0
148
0.0
149
0.0
100
AcDbLayout
  1
Layout1
 70
     1
 71
     1
 10
0.0
 20
0.0
 11
594.0
 21
420.0
 12
0.0
 22
0.0
 32
0.0
 14
0.0
 24
0.0
 34
0.0
 15
594.0
 25
420.0
 35
0.0
146
0.0
 13
0.0
 23
0.0
 33
0.0
 16
1.0
 26
0.0
 36
0.0
 17
0.0
 27
1.0
 37
0.0
 76
     0
330
1B
  0
LAYOUT
  5
22
102
{ACAD_REACTORS
330
1A
102
}
330
1A
100
AcDbPlotSettings
  1

  2

  4

  6

 40
0.0
 41
0.0
 42
0.0
 43
0.0
 44
0.0
 45
0.0
 46
0.0
 47
0.0
 48
0.0
 49
0.0
140
0.0
141
0.0
142
1.0
143
1.0
 70
  1712
 72
     0
 73
     0
 74
     0
  7

 75
     0
147
1.0
148
0.0
149
0.0
100
AcDbLayout
  1
Model
 70
     1
 71
     0
 10
0.0
 20
0.0
 11
594.0
 21
420.0
 12
0.0
 22
0.0
 32
0.0
 14
0.0
 24
0.0
 34
0.0
 15
594.0
 25
420.0
 35
0.0
146
0.0
 13
0.0
 23
0.0
 33
0.0
 16
1.0
 26
0.0
 36
0.0
 17
0.0
 27
1.0
 37
0.0
 76
     0
330
1F
  0
MLINESTYLE
  5
18
102
{ACAD_REACTORS
330
17
102
}
330
17
100
AcDbMlineStyle
  2
Standard
 70
     0
  3

 62
   256
 51
90.0
 52
90.0
 71
     2
 49
0.5
 62
   256
  6
BYLAYER
 49
-0.5
 62
   256
  6
BYLAYER
  0
ACDBPLACEHOLDER
  5
F
102
{ACAD_REACTORS
330
E
102
}
330
E
  0
ENDSEC
  0
EOF
