  0
SECTION
  2
HEADER
  9
$ACADVER
  1
AC1015
  9
$ACADMAINTVER
 70
     6
  9
$DWGCODEPAGE
  3
ANSI_1252
  9
$INSBASE
 10
0.0
 20
0.0
 30
0.0
  9
$EXTMIN
 10
0.0
 20
0.0
 30
0.0
  9
$EXTMAX
 10
594.0
 20
420.0
 30
0.0
  9
$LIMMIN
 10
0.0
 20
0.0
  9
$LIMMAX
 10
594.0
 20
420.0
  9
$ORTHOMODE
 70
     0
  9
$REGENMODE
 70
     1
  9
$FILLMODE
 70
     1
  9
$QTEXTMODE
 70
     0
  9
$MIRRTEXT
 70
     1
  9
$LTSCALE
 40
1.0
  9
$ATTMODE
 70
     1
  9
$TEXTSIZE
 40
0.2
  9
$TRACEWID
 40
0.05
  9
$TEXTSTYLE
  7
Standard
  9
$CLAYER
  8
0
  9
$CELTYPE
  6
ByLayer
  9
$CECOLOR
 62
   256
  9
$CELTSCALE
 40
25.4
  9
$DISPSILH
 70
     0
  9
$DIMSCALE
 40
1.0
  9
$DIMASZ
 40
0.18
  9
$DIMEXO
 40
0.0625
  9
$DIMDLI
 40
0.38
  9
$DIMRND
 40
0.0
  9
$DIMDLE
 40
0.0
  9
$DIMEXE
 40
0.18
  9
$DIMTP
 40
0.0
  9
$DIMTM
 40
0.0
  9
$DIMTXT
 40
0.18
  9
$DIMCEN
 40
0.09
  9
$DIMTSZ
 40
0.0
  9
$DIMTOL
 70
     0
  9
$DIMLIM
 70
     0
  9
$DIMTIH
 70
     1
  9
$DIMTOH
 70
     1
  9
$DIMSE1
 70
     0
  9
$DIMSE2
 70
     0
  9
$DIMTAD
 70
     0
  9
$DIMZIN
 70
     0
  9
$DIMBLK
  1

  9
$DIMASO
 70
     1
  9
$DIMSHO
 70
     1
  9
$DIMPOST
  1

  9
$DIMAPOST
  1

  9
$DIMALT
 70
     0
  9
$DIMALTD
 70
     2
  9
$DIMALTF
 40
25.4
  9
$DIMLFAC
 40
1.0
  9
$DIMTOFL
 70
     0
  9
$DIMTVP
 40
0.0
  9
$DIMTIX
 70
     0
  9
$DIMSOXD
 70
     0
  9
$DIMSAH
 70
     0
  9
$DIMBLK1
  1

  9
$DIMBLK2
  1

  9
$DIMSTYLE
  2
Standard
  9
$DIMCLRD
 70
     0
  9
$DIMCLRE
 70
     0
  9
$DIMCLRT
 70
     0
  9
$DIMTFAC
 40
1.0
  9
$DIMGAP
 40
0.09
  9
$DIMJUST
 70
     0
  9
$DIMSD1
 70
     0
  9
$DIMSD2
 70
     0
  9
$DIMTOLJ
 70
     1
  9
$DIMTZIN
 70
     0
  9
$DIMALTZ
 70
     0
  9
$DIMALTTZ
 70
     0
  9
$DIMUPT
 70
     0
  9
$DIMDEC
 70
     4
  9
$DIMTDEC
 70
     4
  9
$DIMALTU
 70
     2
  9
$DIMALTTD
 70
     2
  9
$DIMTXSTY
  7
Standard
  9
$DIMAUNIT
 70
     0
  9
$DIMADEC
 70
     0
  9
$DIMALTRND
 40
0.0
  9
$DIMAZIN
 70
     0
  9
$DIMDSEP
 70
    46
  9
$DIMATFIT
 70
     3
  9
$DIMFRAC
 70
     0
  9
$DIMLDRBLK
  1

  9
$DIMLUNIT
 70
     2
  9
$DIMLWD
 70
    -2
  9
$DIMLWE
 70
    -2
  9
$DIMTMOVE
 70
     0
  9
$LUNITS
 70
     2
  9
$LUPREC
 70
     4
  9
$SKETCHINC
 40
0.1
  9
$FILLETRAD
 40
0.5
  9
$AUNITS
 70
     0
  9
$AUPREC
 70
     0
  9
$MENU
  1
.
  9
$ELEVATION
 40
0.0
  9
$PELEVATION
 40
0.0
  9
$THICKNESS
 40
0.0
  9
$LIMCHECK
 70
     0
  9
$CHAMFERA
 40
0.5
  9
$CHAMFERB
 40
0.5
  9
$CHAMFERC
 40
1.0
  9
$CHAMFERD
 40
0.0
  9
$SKPOLY
 70
     0
  9
$TDCREATE
 40
2454938.494351655
  9
$TDUCREATE
 40
2454938.452684988
  9
$TDUPDATE
 40
2454938.494351667
  9
$TDUUPDATE
 40
2454938.452685
  9
$TDINDWG
 40
0.0000000116
  9
$TDUSRTIMER
 40
0.0000000116
  9
$USRTIMER
 70
     1
  9
$ANGBASE
 50
0.0
  9
$ANGDIR
 70
     0
  9
$PDMODE
 70
     0
  9
$PDSIZE
 40
0.0
  9
$PLINEWID
 40
0.0
  9
$SPLFRAME
 70
     0
  9
$SPLINETYPE
 70
     6
  9
$SPLINESEGS
 70
     8
  9
$HANDSEED
  5
498
  9
$SURFTAB1
 70
     6
  9
$SURFTAB2
 70
     6
  9
$SURFTYPE
 70
     6
  9
$SURFU
 70
     6
  9
$SURFV
 70
     6
  9
$UCSBASE
  2

  9
$UCSNAME
  2

  9
$UCSORG
 10
0.0
 20
0.0
 30
0.0
  9
$UCSXDIR
 10
1.0
 20
0.0
 30
0.0
  9
$UCSYDIR
 10
0.0
 20
1.0
 30
0.0
  9
$UCSORTHOREF
  2

  9
$UCSORTHOVIEW
 70
     0
  9
$UCSORGTOP
 10
0.0
 20
0.0
 30
0.0
  9
$UCSORGBOTTOM
 10
0.0
 20
0.0
 30
0.0
  9
$UCSORGLEFT
 10
0.0
 20
0.0
 30
0.0
  9
$UCSORGRIGHT
 10
0.0
 20
0.0
 30
0.0
  9
$UCSORGFRONT
 10
0.0
 20
0.0
 30
0.0
  9
$UCSORGBACK
 10
0.0
 20
0.0
 30
0.0
  9
$PUCSBASE
  2

  9
$PUCSNAME
  2

  9
$PUCSORG
 10
0.0
 20
0.0
 30
0.0
  9
$PUCSXDIR
 10
1.0
 20
0.0
 30
0.0
  9
$PUCSYDIR
 10
0.0
 20
1.0
 30
0.0
  9
$PUCSORTHOREF
  2

  9
$PUCSORTHOVIEW
 70
     0
  9
$PUCSORGTOP
 10
0.0
 20
0.0
 30
0.0
  9
$PUCSORGBOTTOM
 10
0.0
 20
0.0
 30
0.0
  9
$PUCSORGLEFT
 10
0.0
 20
0.0
 30
0.0
  9
$PUCSORGRIGHT
 10
0.0
 20
0.0
 30
0.0
  9
$PUCSORGFRONT
 10
0.0
 20
0.0
 30
0.0
  9
$PUCSORGBACK
 10
0.0
 20
0.0
 30
0.0
  9
$USERI1
 70
     0
  9
$USERI2
 70
     0
  9
$USERI3
 70
     0
  9
$USERI4
 70
     0
  9
$USERI5
 70
     0
  9
$USERR1
 40
0.0
  9
$USERR2
 40
0.0
  9
$USERR3
 40
0.0
  9
$USERR4
 40
0.0
  9
$USERR5
 40
0.0
  9
$WORLDVIEW
 70
     1
  9
$SHADEDGE
 70
     3
  9
$SHADEDIF
 70
    70
  9
$TILEMODE
 70
     1
  9
$MAXACTVP
 70
    64
  9
$PINSBASE
 10
0.0
 20
0.0
 30
0.0
  9
$PLIMCHECK
 70
     0
  9
$PEXTMIN
 10
0.0
 20
0.0
 30
0.0
  9
$PEXTMAX
 10
594.0
 20
420.0
 30
0.0
  9
$PLIMMIN
 10
0.0
 20
0.0
  9
$PLIMMAX
 10
594.0
 20
420.0
  9
$UNITMODE
 70
     0
  9
$VISRETAIN
 70
     1
  9
$PLINEGEN
 70
     0
  9
$PSLTSCALE
 70
     1
  9
$TREEDEPTH
 70
  3020
  9
$CMLSTYLE
  2
Standard
  9
$CMLJUST
 70
     0
  9
$CMLSCALE
 40
1.0
  9
$PROXYGRAPHICS
 70
     1
  9
$MEASUREMENT
 70
     1
  9
$CELWEIGHT
370
    -1
  9
$ENDCAPS
280
     0
  9
$JOINSTYLE
280
     0
  9
$LWDISPLAY
290
     0
  9
$INSUNITS
 70
     1
  9
$HYPERLINKBASE
  1

  9
$STYLESHEET
  1

  9
$XEDIT
290
     1
  9
$CEPSNTYPE
380
     0
  9
$PSTYLEMODE
290
     1
  9
$FINGERPRINTGUID
  2
{5254F403-B07B-4239-B138-505D20122BF9}
  9
$VERSIONGUID
  2
{FAEB1C32-E019-11D5-929B-00C0DF256EC4}
  9
$EXTNAMES
290
     1
  9
$PSVPSCALE
 40
0.0
  9
$OLESTARTUP
290
     0
  0
ENDSEC
  0
SECTION
  2
CLASSES
  0
CLASS
  1
ACDBDICTIONARYWDFLT
  2
AcDbDictionaryWithDefault
  3
ObjectDBX Classes
 90
        0
280
     0
281
     0
  0
CLASS
  1
ACDBPLACEHOLDER
  2
AcDbPlaceHolder
  3
ObjectDBX Classes
 90
        0
280
     0
281
     0
  0
CLASS
  1
LAYOUT
  2
AcDbLayout
  3
ObjectDBX Classes
 90
        0
280
     0
281
     0
  0
ENDSEC
  0
SECTION
  2
TABLES
  0
TABLE
  2
VPORT
  5
8
330
0
100
AcDbSymbolTable
 70
     1
  0
VPORT
  5
29
330
8
100
AcDbSymbolTableRecord
100
AcDbViewportTableRecord
  2
*Active
 70
     0
 10
0.0
 20
0.0
 11
1.0
 21
1.0
 12
10.4299065421
 22
4.5
 13
0.0
 23
0.0
 14
0.5
 24
0.5
 15
0.5
 25
0.5
 16
0.0
 26
0.0
 36
1.0
 17
0.0
 27
0.0
 37
0.0
 40
9.0
 41
1.9729729729
 42
50.0
 43
0.0
 44
0.0
 50
0.0
 51
0.0
 71
     0
 72
   100
 73
     1
 74
     3
 75
     0
 76
     0
 77
     0
 78
     0
281
     0
 65
     1
110
0.0
120
0.0
130
0.0
111
1.0
121
0.0
131
0.0
112
0.0
122
1.0
132
0.0
 79
     0
146
0.0
  0
ENDTAB
  0
TABLE
  2
LTYPE
  5
5
330
0
100
AcDbSymbolTable
 70
     3
  0
LTYPE
  5
14
330
5
100
AcDbSymbolTableRecord
100
AcDbLinetypeTableRecord
  2
ByBlock
 70
     0
  3

 72
    65
 73
     0
 40
0.0
  0
LTYPE
  5
15
330
5
100
AcDbSymbolTableRecord
100
AcDbLinetypeTableRecord
  2
ByLayer
 70
     0
  3

 72
    65
 73
     0
 40
0.0
  0
LTYPE
  5
16
330
5
100
AcDbSymbolTableRecord
100
AcDbLinetypeTableRecord
  2
Continuous
 70
     0
  3
Solid line
 72
    65
 73
     0
 40
0.0
  0
LTYPE
  5
57
330
5
100
AcDbSymbolTableRecord
100
AcDbLinetypeTableRecord
  2
CENTER2
 70
     0
  3
___ _ ___ _ ___ _ ___ _ ___ _ ___ _ ___ _ ___ _
 72
    65
 73
     4
 40
1.125
 49
0.75
 74
     4
 75
     0
340
0
 46
0.0
 50
0.0
 44
0.0
 45
0.0
 49
-0.125
 74
     4
 75
     0
340
0
 46
0.0
 50
0.0
 44
0.0
 45
0.0
 49
0.125
 74
     4
 75
     0
340
0
 46
0.0
 50
0.0
 44
0.0
 45
0.0
 49
-0.125
 74
     4
 75
     0
340
0
 46
0.0
 50
0.0
 44
0.0
 45
0.0
  0
LTYPE
  5
161
330
5
100
AcDbSymbolTableRecord
100
AcDbLinetypeTableRecord
  2
HIDDEN2
 70
     0
  3
_ _ _ _ _ _ _ _ _ _ _ _ _ _ _ _ _ _ _ _ _ _ _ _
 72
    65
 73
     2
 40
0.1875
 49
0.125
 74
     4
 75
     0
340
0
 46
0.0
 50
0.0
 44
0.0
 45
0.0
 49
-0.0625
 74
     4
 75
     0
340
0
 46
0.0
 50
0.0
 44
0.0
 45
0.0
  0
ENDTAB
  0
TABLE
  2
LAYER
  5
2
330
0
100
AcDbSymbolTable
 70
     6
  0
LAYER
  5
10
330
2
100
AcDbSymbolTableRecord
100
AcDbLayerTableRecord
  2
0
 70
     0
 62
     7
  6
Continuous
370
    -3
390
F
  0
LAYER
  5
2A
330
2
100
AcDbSymbolTableRecord
100
AcDbLayerTableRecord
  2
Default
 70
     0
 62
     7
  6
Continuous
370
    -3
390
F
  0
LAYER
  5
53
330
2
100
AcDbSymbolTableRecord
100
AcDbLayerTableRecord
  2
DV1_Default
 70
     0
 62
     7
  6
Continuous
370
    -3
390
F
  0
LAYER
  5
1A4
330
2
100
AcDbSymbolTableRecord
100
AcDbLayerTableRecord
  2
DV2_Default
 70
     0
 62
     7
  6
Continuous
370
    -3
390
F
  0
LAYER
  5
261
330
2
100
AcDbSymbolTableRecord
100
AcDbLayerTableRecord
  2
DV3_Default
 70
     0
 62
     7
  6
Continuous
370
    -3
390
F
  0
LAYER
  5
487
330
2
100
AcDbSymbolTableRecord
100
AcDbLayerTableRecord
  2
BORDER
 70
     0
 62
     7
  6
Continuous
370
    -3
390
F
  0
ENDTAB
  0
TABLE
  2
STYLE
  5
3
330
0
100
AcDbSymbolTable
 70
     3
  0
STYLE
  5
11
330
3
100
AcDbSymbolTableRecord
100
AcDbTextStyleTableRecord
  2
Standard
 70
     0
 40
0.0
 41
1.0
 50
0.0
 71
     0
 42
0.2
  3
txt
  4

  0
STYLE
  5
31
330
3
100
AcDbSymbolTableRecord
100
AcDbTextStyleTableRecord
  2
SEACAD_arial_ttf
 70
     0
 40
0.2
 41
1.0
 50
0.0
 71
     0
 42
0.2
  3
arial.ttf
  4

  0
STYLE
  5
31D
330
3
100
AcDbSymbolTableRecord
100
AcDbTextStyleTableRecord
  2
SEACAD_semeca1_ttf
 70
     0
 40
0.2
 41
1.0
 50
0.0
 71
     0
 42
0.2
  3
semeca1.ttf
  4

  0
ENDTAB
  0
TABLE
  2
VIEW
  5
6
330
0
100
AcDbSymbolTable
 70
     0
  0
ENDTAB
  0
TABLE
  2
UCS
  5
7
330
0
100
AcDbSymbolTable
 70
     0
  0
ENDTAB
  0
TABLE
  2
APPID
  5
9
330
0
100
AcDbSymbolTable
 70
     1
  0
APPID
  5
12
330
9
100
AcDbSymbolTableRecord
100
AcDbRegAppTableRecord
  2
ACAD
 70
     0
  0
ENDTAB
  0
TABLE
  2
DIMSTYLE
  5
A
330
0
100
AcDbSymbolTable
 70
     1
100
AcDbDimStyleTable
  0
DIMSTYLE
105
27
330
A
100
AcDbSymbolTableRecord
100
AcDbDimStyleTableRecord
  2
Standard
 70
     0
340
11
  0
ENDTAB
  0
TABLE
  2
BLOCK_RECORD
  5
1
330
0
100
AcDbSymbolTable
 70
    41
  0
BLOCK_RECORD
  5
1F
330
1
100
AcDbSymbolTableRecord
100
AcDbBlockTableRecord
  2
*Model_Space
340
22
  0
BLOCK_RECORD
  5
1B
330
1
100
AcDbSymbolTableRecord
100
AcDbBlockTableRecord
  2
*Paper_Space
340
1E
  0
BLOCK_RECORD
  5
2B
330
1
100
AcDbSymbolTableRecord
100
AcDbBlockTableRecord
  2
SEANNOT_GROUP
340
0
102
{BLKREFS
331
2C
102
}
  0
BLOCK_RECORD
  5
36
330
1
100
AcDbSymbolTableRecord
100
AcDbBlockTableRecord
  2
SEANNOT_GROUP1
340
0
102
{BLKREFS
331
37
102
}
  0
BLOCK_RECORD
  5
3F
330
1
100
AcDbSymbolTableRecord
100
AcDbBlockTableRecord
  2
SEANNOT_GROUP2
340
0
102
{BLKREFS
331
40
102
}
  0
BLOCK_RECORD
  5
48
330
1
100
AcDbSymbolTableRecord
100
AcDbBlockTableRecord
  2
SEANNOT_GROUP3
340
0
102
{BLKREFS
331
49
102
}
  0
BLOCK_RECORD
  5
51
330
1
100
AcDbSymbolTableRecord
100
AcDbBlockTableRecord
  2
SE
340
0
102
{BLKREFS
331
52
102
}
  0
BLOCK_RECORD
  5
1A2
330
1
100
AcDbSymbolTableRecord
100
AcDbBlockTableRecord
  2
SE1
340
0
102
{BLKREFS
331
1A3
102
}
  0
BLOCK_RECORD
  5
25F
330
1
100
AcDbSymbolTableRecord
100
AcDbBlockTableRecord
  2
SE2
340
0
102
{BLKREFS
331
260
102
}
  0
BLOCK_RECORD
  5
2FB
330
1
100
AcDbSymbolTableRecord
100
AcDbBlockTableRecord
  2
GDimGGroup
340
0
102
{BLKREFS
331
2FC
102
}
  0
BLOCK_RECORD
  5
307
330
1
100
AcDbSymbolTableRecord
100
AcDbBlockTableRecord
  2
GDimGGroup1
340
0
102
{BLKREFS
331
308
102
}
  0
BLOCK_RECORD
  5
313
330
1
100
AcDbSymbolTableRecord
100
AcDbBlockTableRecord
  2
GDimGGroup2
340
0
102
{BLKREFS
331
314
102
}
  0
BLOCK_RECORD
  5
321
330
1
100
AcDbSymbolTableRecord
100
AcDbBlockTableRecord
  2
GDimGGroup3
340
0
102
{BLKREFS
331
322
102
}
  0
BLOCK_RECORD
  5
32D
330
1
100
AcDbSymbolTableRecord
100
AcDbBlockTableRecord
  2
GDimGGroup4
340
0
102
{BLKREFS
331
32E
102
}
  0
BLOCK_RECORD
  5
339
330
1
100
AcDbSymbolTableRecord
100
AcDbBlockTableRecord
  2
GDimGGroup5
340
0
102
{BLKREFS
331
33A
102
}
  0
BLOCK_RECORD
  5
346
330
1
100
AcDbSymbolTableRecord
100
AcDbBlockTableRecord
  2
GDimGGroup6
340
0
102
{BLKREFS
331
347
102
}
  0
BLOCK_RECORD
  5
34F
330
1
100
AcDbSymbolTableRecord
100
AcDbBlockTableRecord
  2
GDimGGroup7
340
0
102
{BLKREFS
331
350
102
}
  0
BLOCK_RECORD
  5
35B
330
1
100
AcDbSymbolTableRecord
100
AcDbBlockTableRecord
  2
GDimGGroup8
340
0
102
{BLKREFS
331
35C
102
}
  0
BLOCK_RECORD
  5
367
330
1
100
AcDbSymbolTableRecord
100
AcDbBlockTableRecord
  2
GDimGGroup9
340
0
102
{BLKREFS
331
368
102
}
  0
BLOCK_RECORD
  5
373
330
1
100
AcDbSymbolTableRecord
100
AcDbBlockTableRecord
  2
GDimGGroup10
340
0
102
{BLKREFS
331
374
102
}
  0
BLOCK_RECORD
  5
37F
330
1
100
AcDbSymbolTableRecord
100
AcDbBlockTableRecord
  2
GDimGGroup11
340
0
102
{BLKREFS
331
380
102
}
  0
BLOCK_RECORD
  5
38A
330
1
100
AcDbSymbolTableRecord
100
AcDbBlockTableRecord
  2
GDimGGroup12
340
0
102
{BLKREFS
331
38B
102
}
  0
BLOCK_RECORD
  5
395
330
1
100
AcDbSymbolTableRecord
100
AcDbBlockTableRecord
  2
GDimGGroup13
340
0
102
{BLKREFS
331
396
102
}
  0
BLOCK_RECORD
  5
3A2
330
1
100
AcDbSymbolTableRecord
100
AcDbBlockTableRecord
  2
GDimGGroup14
340
0
102
{BLKREFS
331
3A3
102
}
  0
BLOCK_RECORD
  5
3AF
330
1
100
AcDbSymbolTableRecord
100
AcDbBlockTableRecord
  2
GDimGGroup15
340
0
102
{BLKREFS
331
3B0
102
}
  0
BLOCK_RECORD
  5
3BB
330
1
100
AcDbSymbolTableRecord
100
AcDbBlockTableRecord
  2
GDimGGroup16
340
0
102
{BLKREFS
331
3BC
102
}
  0
BLOCK_RECORD
  5
3C6
330
1
100
AcDbSymbolTableRecord
100
AcDbBlockTableRecord
  2
GDimGGroup17
340
0
102
{BLKREFS
331
3C7
102
}
  0
BLOCK_RECORD
  5
3D2
330
1
100
AcDbSymbolTableRecord
100
AcDbBlockTableRecord
  2
GDimGGroup18
340
0
102
{BLKREFS
331
3D3
102
}
  0
BLOCK_RECORD
  5
3DE
330
1
100
AcDbSymbolTableRecord
100
AcDbBlockTableRecord
  2
GDimGGroup19
340
0
102
{BLKREFS
331
3DF
102
}
  0
BLOCK_RECORD
  5
3EA
330
1
100
AcDbSymbolTableRecord
100
AcDbBlockTableRecord
  2
GDimGGroup20
340
0
102
{BLKREFS
331
3EB
102
}
  0
BLOCK_RECORD
  5
3F8
330
1
100
AcDbSymbolTableRecord
100
AcDbBlockTableRecord
  2
GDimGGroup21
340
0
102
{BLKREFS
331
3F9
102
}
  0
BLOCK_RECORD
  5
406
330
1
100
AcDbSymbolTableRecord
100
AcDbBlockTableRecord
  2
GDimGGroup22
340
0
102
{BLKREFS
331
407
102
}
  0
BLOCK_RECORD
  5
410
330
1
100
AcDbSymbolTableRecord
100
AcDbBlockTableRecord
  2
GDimGGroup23
340
0
102
{BLKREFS
331
411
102
}
  0
BLOCK_RECORD
  5
41C
330
1
100
AcDbSymbolTableRecord
100
AcDbBlockTableRecord
  2
GDimGGroup24
340
0
102
{BLKREFS
331
41D
102
}
  0
BLOCK_RECORD
  5
427
330
1
100
AcDbSymbolTableRecord
100
AcDbBlockTableRecord
  2
GDimGGroup25
340
0
102
{BLKREFS
331
428
102
}
  0
BLOCK_RECORD
  5
433
330
1
100
AcDbSymbolTableRecord
100
AcDbBlockTableRecord
  2
GDimGGroup26
340
0
102
{BLKREFS
331
434
102
}
  0
BLOCK_RECORD
  5
43F
330
1
100
AcDbSymbolTableRecord
100
AcDbBlockTableRecord
  2
GDimGGroup27
340
0
102
{BLKREFS
331
440
102
}
  0
BLOCK_RECORD
  5
44B
330
1
100
AcDbSymbolTableRecord
100
AcDbBlockTableRecord
  2
GDimGGroup28
340
0
102
{BLKREFS
331
44C
102
}
  0
BLOCK_RECORD
  5
455
330
1
100
AcDbSymbolTableRecord
100
AcDbBlockTableRecord
  2
GDimGGroup29
340
0
102
{BLKREFS
331
456
102
}
  0
BLOCK_RECORD
  5
463
330
1
100
AcDbSymbolTableRecord
100
AcDbBlockTableRecord
  2
GDimGGroup30
340
0
102
{BLKREFS
331
464
102
}
  0
BLOCK_RECORD
  5
46F
330
1
100
AcDbSymbolTableRecord
100
AcDbBlockTableRecord
  2
GDimGGroup31
340
0
102
{BLKREFS
331
470
102
}
  0
BLOCK_RECORD
  5
47C
330
1
100
AcDbSymbolTableRecord
100
AcDbBlockTableRecord
  2
GDimGGroup32
340
0
102
{BLKREFS
331
47D
102
}
  0
ENDTAB
  0
ENDSEC
  0
SECTION
  2
BLOCKS
  0
BLOCK
  5
20
330
1F
100
AcDbEntity
  8
0
100
AcDbBlockBegin
  2
*Model_Space
 70
     0
 71
     0
 10
0.0
 20
0.0
 30
0.0
  3
*Model_Space
  1

  0
ENDBLK
  5
21
330
1F
100
AcDbEntity
  8
0
100
AcDbBlockEnd
  0
BLOCK
  5
1C
330
1B
100
AcDbEntity
 67
     1
  8
0
100
AcDbBlockBegin
  2
*Paper_Space
 70
     0
 71
     0
 10
0.0
 20
0.0
 30
0.0
  3
*Paper_Space
  1

  0
ENDBLK
  5
1D
330
1B
100
AcDbEntity
 67
     1
  8
0
100
AcDbBlockEnd
  0
BLOCK
  5
34
330
2B
100
AcDbEntity
  8
0
100
AcDbBlockBegin
  2
SEANNOT_GROUP
 70
     0
 71
     0
 10
0.0
 20
0.0
 30
0.0
  3
SEANNOT_GROUP
  1

  0
LWPOLYLINE
  5
2D
330
2B
100
AcDbEntity
  8
Default
  6
Continuous
 62
     7
 48
25.4
100
AcDbPolyline
 90
        2
 70
     0
 43
0.0
 10
256.0455568176
 20
399.265921549
 10
220.9888628942
 20
381.5553248247
  0
HATCH
  5
2E
330
2B
100
AcDbEntity
  8
Default
  6
Continuous
 62
     7
 48
25.4
100
AcDbHatch
 10
0.0
 20
0.0
 30
0.0
210
0.0
220
0.0
230
1.0
  2
SOLID
 70
     1
 71
     0
 91
        1
 92
        1
 93
        3
 72
     1
 10
224.2585021142997
 20
383.9540547755296
 11
220.9888628942291
 21
381.5553248246684
 72
     1
 10
220.9888628942291
 20
381.5553248246684
 11
224.8597313297103
 21
382.763970166271
 72
     1
 10
224.8597313297103
 20
382.763970166271
 11
224.2585021142997
 21
383.9540547755296
 97
        0
 75
     0
 76
     1
 98
        0
  0
LWPOLYLINE
  5
2F
330
2B
100
AcDbEntity
  8
Default
  6
Continuous
 62
     7
 48
25.4
370
    20
100
AcDbPolyline
 90
        4
 70
     1
 43
0.0
 10
224.2585021143
 20
383.9540547755
 10
220.9888628942
 20
381.5553248247
 10
224.8597313297
 20
382.7639701663
 10
224.2585021143
 20
383.9540547755
  0
LINE
  5
30
330
2B
100
AcDbEntity
  8
Default
  6
Continuous
 62
     7
 48
25.4
100
AcDbLine
 10
256.0455568176
 20
399.265921549
 30
0.0
 11
327.8861365277
 21
399.265921549
 31
0.0
  0
TEXT
  5
32
330
2B
100
AcDbEntity
  8
Default
  6
Continuous
 62
     7
 48
25.4
100
AcDbText
 10
256.0455568176
 20
400.265921549
 30
0.0
 40
4.0
  1
SERRATION PITCH 1.5X60
  7
SEACAD_arial_ttf
 11
256.0455568176
 21
404.265921549
 31
0.0
100
AcDbText
 73
     3
  0
TEXT
  5
33
330
2B
100
AcDbEntity
  8
Default
  6
Continuous
 62
     7
 48
25.4
100
AcDbText
 10
326.2194698611
 20
400.265921549
 30
0.0
 40
4.0
  1
°
  7
SEACAD_arial_ttf
 11
326.2194698611
 21
404.265921549
 31
0.0
100
AcDbText
 73
     3
  0
ENDBLK
  5
35
330
2B
100
AcDbEntity
  8
0
100
AcDbBlockEnd
  0
BLOCK
  5
3D
330
36
100
AcDbEntity
  8
0
100
AcDbBlockBegin
  2
SEANNOT_GROUP1
 70
     0
 71
     0
 10
0.0
 20
0.0
 30
0.0
  3
SEANNOT_GROUP1
  1

  0
LWPOLYLINE
  5
38
330
36
100
AcDbEntity
  8
Default
  6
Continuous
 62
     7
 48
25.4
100
AcDbPolyline
 90
        2
 70
     0
 43
0.0
 10
120.6541784717
 20
208.2027311197
 10
141.6376877332
 20
233.8772244287
  0
HATCH
  5
39
330
36
100
AcDbEntity
  8
Default
  6
Continuous
 62
     7
 48
25.4
100
AcDbHatch
 10
0.0
 20
0.0
 30
0.0
210
0.0
220
0.0
230
1.0
  2
SOLID
 70
     1
 71
     0
 91
        1
 92
        1
 93
        3
 72
     1
 10
139.6225882400357
 20
230.3581592063244
 11
141.6376877332104
 21
233.8772244286797
 72
     1
 10
141.6376877332104
 20
233.8772244286797
 11
138.5901940864705
 21
231.2019247296435
 72
     1
 10
138.5901940864705
 20
231.2019247296435
 11
139.6225882400357
 21
230.3581592063244
 97
        0
 75
     0
 76
     1
 98
        0
  0
LWPOLYLINE
  5
3A
330
36
100
AcDbEntity
  8
Default
  6
Continuous
 62
     7
 48
25.4
370
    20
100
AcDbPolyline
 90
        4
 70
     1
 43
0.0
 10
139.62258824
 20
230.3581592063
 10
141.6376877332
 20
233.8772244287
 10
138.5901940865
 20
231.2019247296
 10
139.62258824
 20
230.3581592063
  0
LINE
  5
3B
330
36
100
AcDbEntity
  8
Default
  6
Continuous
 62
     7
 48
25.4
100
AcDbLine
 10
120.6541784717
 20
208.2027311197
 30
0.0
 11
104.8280915152
 21
208.2027311197
 31
0.0
  0
TEXT
  5
3C
330
36
100
AcDbEntity
  8
Default
  6
Continuous
 62
     7
 48
25.4
100
AcDbText
 10
104.8280915152
 20
209.2027311197
 30
0.0
 40
4.0
  1
6-M16
  7
SEACAD_arial_ttf
 11
104.8280915152
 21
213.2027311197
 31
0.0
100
AcDbText
 73
     3
  0
ENDBLK
  5
3E
330
36
100
AcDbEntity
  8
0
100
AcDbBlockEnd
  0
BLOCK
  5
46
330
3F
100
AcDbEntity
  8
0
100
AcDbBlockBegin
  2
SEANNOT_GROUP2
 70
     0
 71
     0
 10
0.0
 20
0.0
 30
0.0
  3
SEANNOT_GROUP2
  1

  0
LWPOLYLINE
  5
41
330
3F
100
AcDbEntity
  8
Default
  6
Continuous
 62
     7
 48
25.4
100
AcDbPolyline
 90
        2
 70
     0
 43
0.0
 10
384.0788188606
 20
380.2493710249
 10
398.677805648
 20
358.687179065
  0
HATCH
  5
42
330
3F
100
AcDbEntity
  8
Default
  6
Continuous
 62
     7
 48
25.4
100
AcDbHatch
 10
0.0
 20
0.0
 30
0.0
210
0.0
220
0.0
230
1.0
  2
SOLID
 70
     1
 71
     0
 91
        1
 92
        1
 93
        3
 72
     1
 10
395.8831826524493
 20
361.6256358571397
 11
398.6778056479791
 21
358.6871790649716
 72
     1
 10
398.6778056479791
 20
358.6871790649716
 11
396.9872563685865
 21
362.3731645696267
 72
     1
 10
396.9872563685865
 20
362.3731645696267
 11
395.8831826524493
 21
361.6256358571397
 97
        0
 75
     0
 76
     1
 98
        0
  0
LWPOLYLINE
  5
43
330
3F
100
AcDbEntity
  8
Default
  6
Continuous
 62
     7
 48
25.4
370
    20
100
AcDbPolyline
 90
        4
 70
     1
 43
0.0
 10
395.8831826524
 20
361.6256358571
 10
398.677805648
 20
358.687179065
 10
396.9872563686
 20
362.3731645696
 10
395.8831826524
 20
361.6256358571
  0
LINE
  5
44
330
3F
100
AcDbEntity
  8
Default
  6
Continuous
 62
     7
 48
25.4
100
AcDbLine
 10
384.0788188606
 20
380.2493710249
 30
0.0
 11
371.3831666866
 21
380.2493710249
 31
0.0
  0
TEXT
  5
45
330
3F
100
AcDbEntity
  8
Default
  6
Continuous
 62
     7
 48
25.4
100
AcDbText
 10
371.3831666866
 20
381.2493710249
 30
0.0
 40
4.0
  1
3-M8
  7
SEACAD_arial_ttf
 11
371.3831666866
 21
385.2493710249
 31
0.0
100
AcDbText
 73
     3
  0
ENDBLK
  5
47
330
3F
100
AcDbEntity
  8
0
100
AcDbBlockEnd
  0
BLOCK
  5
4F
330
48
100
AcDbEntity
  8
0
100
AcDbBlockBegin
  2
SEANNOT_GROUP3
 70
     0
 71
     0
 10
0.0
 20
0.0
 30
0.0
  3
SEANNOT_GROUP3
  1

  0
LWPOLYLINE
  5
4A
330
48
100
AcDbEntity
  8
Default
  6
Continuous
 62
     7
 48
25.4
100
AcDbPolyline
 90
        2
 70
     0
 43
0.0
 10
36.8202933452
 20
269.3968555359
 10
58.0728486034
 20
292.4961170785
  0
HATCH
  5
4B
330
48
100
AcDbEntity
  8
Default
  6
Continuous
 62
     7
 48
25.4
100
AcDbHatch
 10
0.0
 20
0.0
 30
0.0
210
0.0
220
0.0
230
1.0
  2
SOLID
 70
     1
 71
     0
 91
        1
 92
        1
 93
        3
 72
     1
 10
55.85514477217183
 20
289.1010860442071
 11
58.07284860339242
 21
292.4961170784648
 72
     1
 10
58.07284860339242
 20
292.4961170784648
 11
54.87392950869479
 21
290.0038565318602
 72
     1
 10
54.87392950869479
 20
290.0038565318602
 11
55.85514477217183
 21
289.1010860442071
 97
        0
 75
     0
 76
     1
 98
        0
  0
LWPOLYLINE
  5
4C
330
48
100
AcDbEntity
  8
Default
  6
Continuous
 62
     7
 48
25.4
370
    20
100
AcDbPolyline
 90
        4
 70
     1
 43
0.0
 10
55.8551447722
 20
289.1010860442
 10
58.0728486034
 20
292.4961170785
 10
54.8739295087
 20
290.0038565319
 10
55.8551447722
 20
289.1010860442
  0
LINE
  5
4D
330
48
100
AcDbEntity
  8
Default
  6
Continuous
 62
     7
 48
25.4
100
AcDbLine
 10
36.8202933452
 20
269.3968555359
 30
0.0
 11
14.55942378
 21
269.3968555359
 31
0.0
  0
TEXT
  5
4E
330
48
100
AcDbEntity
  8
Default
  6
Continuous
 62
     7
 48
25.4
100
AcDbText
 10
14.55942378
 20
270.3968555359
 30
0.0
 40
4.0
  1
M20X2.5
  7
SEACAD_arial_ttf
 11
14.55942378
 21
274.3968555359
 31
0.0
100
AcDbText
 73
     3
  0
ENDBLK
  5
50
330
48
100
AcDbEntity
  8
0
100
AcDbBlockEnd
  0
BLOCK
  5
1A0
330
51
100
AcDbEntity
  8
0
100
AcDbBlockBegin
  2
SE
 70
     0
 71
     0
 10
0.0
 20
0.0
 30
0.0
  3
SE
  1

  0
LINE
  5
54
330
51
100
AcDbEntity
  8
DV1_Default
  6
Continuous
 62
     7
 48
25.4
100
AcDbLine
 10
158.1638628942
 20
376.4672219931
 30
0.0
 11
146.9638628942
 21
376.4672219931
 31
0.0
  0
LINE
  5
55
330
51
100
AcDbEntity
  8
DV1_Default
  6
Continuous
 62
     7
 48
25.4
100
AcDbLine
 10
146.9638628942
 20
222.4672219931
 30
0.0
 11
158.1638628942
 21
222.4672219931
 31
0.0
  0
LINE
  5
56
330
51
100
AcDbEntity
  8
DV1_Default
  6
Continuous
 62
     7
 48
25.4
100
AcDbLine
 10
158.8638628942
 20
245.4272195576
 30
0.0
 11
158.8638628942
 21
283.7461170785
 31
0.0
  0
LINE
  5
58
330
51
100
AcDbEntity
  8
DV1_Default
  6
CENTER2
 62
     7
 48
25.4
100
AcDbLine
 10
223.906005046
 20
239.4772219931
 30
0.0
 11
114.9295328176
 21
239.4772219931
 31
0.0
  0
LINE
  5
59
330
51
100
AcDbEntity
  8
DV1_Default
  6
Continuous
 62
     7
 48
25.4
100
AcDbLine
 10
217.6638628942
 20
248.2794639552
 30
0.0
 11
205.7638628942
 21
248.2794639552
 31
0.0
  0
LINE
  5
5A
330
51
100
AcDbEntity
  8
DV1_Default
  6
Continuous
 62
     7
 48
25.4
100
AcDbLine
 10
205.7638628942
 20
248.2794639552
 30
0.0
 11
205.7638628942
 21
239.4772219931
 31
0.0
  0
LINE
  5
5B
330
51
100
AcDbEntity
  8
DV1_Default
  6
Continuous
 62
     7
 48
25.4
100
AcDbLine
 10
158.8638628942
 20
223.1672219931
 30
0.0
 11
158.8638628942
 21
233.5272244287
 31
0.0
  0
LINE
  5
5C
330
51
100
AcDbEntity
  8
DV1_Default
  6
Continuous
 62
     7
 48
25.4
100
AcDbLine
 10
169.1411935017
 20
245.0772195576
 30
0.0
 11
169.1411935017
 21
239.4772219931
 31
0.0
  0
LINE
  5
5D
330
51
100
AcDbEntity
  8
DV1_Default
  6
CENTER2
 62
     7
 48
25.4
100
AcDbLine
 10
32.4113078131
 20
299.4961170785
 30
0.0
 11
255.7796371835
 21
299.4961170785
 31
0.0
  0
LINE
  5
5E
330
51
100
AcDbEntity
  8
DV1_Default
  6
Continuous
 62
     7
 48
25.4
100
AcDbLine
 10
205.7638628942
 20
247.9294639552
 30
0.0
 11
216.9638628942
 21
247.9294639552
 31
0.0
  0
LINE
  5
5F
330
51
100
AcDbEntity
  8
DV1_Default
  6
Continuous
 62
     7
 48
25.4
100
AcDbLine
 10
217.3138628942
 20
247.5794639552
 30
0.0
 11
217.3138628942
 21
239.4772219931
 31
0.0
  0
LINE
  5
60
330
51
100
AcDbEntity
  8
DV1_Default
  6
Continuous
 62
     7
 48
25.4
100
AcDbLine
 10
216.9638628942
 20
247.9294639552
 30
0.0
 11
217.3138628942
 21
247.5794639552
 31
0.0
  0
LINE
  5
61
330
51
100
AcDbEntity
  8
DV1_Default
  6
Continuous
 62
     7
 48
25.4
100
AcDbLine
 10
216.9638628942
 20
247.9294639552
 30
0.0
 11
216.9638628942
 21
239.4772219931
 31
0.0
  0
LINE
  5
62
330
51
100
AcDbEntity
  8
DV1_Default
  6
Continuous
 62
     7
 48
25.4
100
AcDbLine
 10
217.6638628942
 20
230.674980031
 30
0.0
 11
205.7638628942
 21
230.674980031
 31
0.0
  0
LINE
  5
63
330
51
100
AcDbEntity
  8
DV1_Default
  6
Continuous
 62
     7
 48
25.4
100
AcDbLine
 10
205.7638628942
 20
230.674980031
 30
0.0
 11
205.7638628942
 21
239.4772219931
 31
0.0
  0
LINE
  5
64
330
51
100
AcDbEntity
  8
DV1_Default
  6
Continuous
 62
     7
 48
25.4
100
AcDbLine
 10
169.1411935017
 20
233.8772244287
 30
0.0
 11
169.1411935017
 21
239.4772219931
 31
0.0
  0
LINE
  5
65
330
51
100
AcDbEntity
  8
DV1_Default
  6
Continuous
 62
     7
 48
25.4
100
AcDbLine
 10
205.7638628942
 20
231.024980031
 30
0.0
 11
216.9638628942
 21
231.024980031
 31
0.0
  0
LINE
  5
66
330
51
100
AcDbEntity
  8
DV1_Default
  6
Continuous
 62
     7
 48
25.4
100
AcDbLine
 10
217.3138628942
 20
231.374980031
 30
0.0
 11
217.3138628942
 21
239.4772219931
 31
0.0
  0
LINE
  5
67
330
51
100
AcDbEntity
  8
DV1_Default
  6
Continuous
 62
     7
 48
25.4
100
AcDbLine
 10
216.9638628942
 20
231.024980031
 30
0.0
 11
217.3138628942
 21
231.374980031
 31
0.0
  0
LINE
  5
68
330
51
100
AcDbEntity
  8
DV1_Default
  6
Continuous
 62
     7
 48
25.4
100
AcDbLine
 10
216.9638628942
 20
231.024980031
 30
0.0
 11
216.9638628942
 21
239.4772219931
 31
0.0
  0
LINE
  5
69
330
51
100
AcDbEntity
  8
DV1_Default
  6
Continuous
 62
     7
 48
25.4
100
AcDbLine
 10
221.5138628942
 20
388.3672219931
 30
0.0
 11
249.8638628942
 21
388.3672219931
 31
0.0
  0
LINE
  5
6A
330
51
100
AcDbEntity
  8
DV1_Default
  6
Continuous
 62
     7
 48
25.4
100
AcDbLine
 10
249.8638628942
 20
388.3672219931
 30
0.0
 11
249.8638628942
 21
311.3672219931
 31
0.0
  0
LINE
  5
6B
330
51
100
AcDbEntity
  8
DV1_Default
  6
Continuous
 62
     7
 48
25.4
100
AcDbLine
 10
223.9638628942
 20
311.3672219931
 30
0.0
 11
223.9638628942
 21
341.758902376
 31
0.0
  0
LINE
  5
6C
330
51
100
AcDbEntity
  8
DV1_Default
  6
Continuous
 62
     7
 48
25.4
100
AcDbLine
 10
249.8638628942
 20
360.7172219931
 30
0.0
 11
230.9638628942
 21
360.7172219931
 31
0.0
  0
LINE
  5
6D
330
51
100
AcDbEntity
  8
DV1_Default
  6
Continuous
 62
     7
 48
25.4
100
AcDbLine
 10
230.9638628942
 20
360.7172219931
 30
0.0
 11
230.9638628942
 21
374.0172219931
 31
0.0
  0
LINE
  5
6E
330
51
100
AcDbEntity
  8
DV1_Default
  6
Continuous
 62
     7
 48
25.4
100
AcDbLine
 10
230.9638628942
 20
374.0172219931
 30
0.0
 11
249.8638628942
 21
374.0172219931
 31
0.0
  0
LINE
  5
6F
330
51
100
AcDbEntity
  8
DV1_Default
  6
Continuous
 62
     7
 48
25.4
100
AcDbLine
 10
230.9638628942
 20
371.9753841269
 30
0.0
 11
223.9638628942
 21
371.9753841269
 31
0.0
  0
LINE
  5
70
330
51
100
AcDbEntity
  8
DV1_Default
  6
Continuous
 62
     7
 48
25.4
100
AcDbLine
 10
230.9638628942
 20
362.8753841269
 30
0.0
 11
223.9638628942
 21
362.8753841269
 31
0.0
  0
LINE
  5
71
330
51
100
AcDbEntity
  8
DV1_Default
  6
Continuous
 62
     7
 48
25.4
100
AcDbLine
 10
230.9638628942
 20
371.5224715146
 30
0.0
 11
223.2638628942
 21
371.5224715146
 31
0.0
  0
LINE
  5
72
330
51
100
AcDbEntity
  8
DV1_Default
  6
Continuous
 62
     7
 48
25.4
100
AcDbLine
 10
227.4638628942
 20
371.1248709546
 30
0.0
 11
223.2638628942
 21
371.1248709546
 31
0.0
  0
LINE
  5
73
330
51
100
AcDbEntity
  8
DV1_Default
  6
Continuous
 62
     7
 48
25.4
100
AcDbLine
 10
230.9638628942
 20
363.3082312066
 30
0.0
 11
223.2638628942
 21
363.3082312066
 31
0.0
  0
LINE
  5
74
330
51
100
AcDbEntity
  8
DV1_Default
  6
Continuous
 62
     7
 48
25.4
100
AcDbLine
 10
227.4638628942
 20
363.7482797945
 30
0.0
 11
223.2638628942
 21
363.7482797945
 31
0.0
  0
LINE
  5
75
330
51
100
AcDbEntity
  8
DV1_Default
  6
Continuous
 62
     7
 48
25.4
100
AcDbLine
 10
223.9638628942
 20
371.9753841269
 30
0.0
 11
223.9638628942
 21
388.3672219931
 31
0.0
  0
LINE
  5
76
330
51
100
AcDbEntity
  8
DV1_Default
  6
Continuous
 62
     7
 48
25.4
100
AcDbLine
 10
230.9638628942
 20
374.0172219931
 30
0.0
 11
230.9638628942
 21
373.6672219931
 31
0.0
  0
LINE
  5
77
330
51
100
AcDbEntity
  8
DV1_Default
  6
Continuous
 62
     7
 48
25.4
100
AcDbLine
 10
230.9638628942
 20
373.6672219931
 30
0.0
 11
239.0138628942
 21
373.6672219931
 31
0.0
  0
LINE
  5
78
330
51
100
AcDbEntity
  8
DV1_Default
  6
Continuous
 62
     7
 48
25.4
100
AcDbLine
 10
239.3638628942
 20
373.3172219931
 30
0.0
 11
239.3638628942
 21
361.417550327
 31
0.0
  0
LINE
  5
79
330
51
100
AcDbEntity
  8
DV1_Default
  6
Continuous
 62
     7
 48
25.4
100
AcDbLine
 10
239.0138628942
 20
361.067550327
 30
0.0
 11
230.9638628942
 21
361.067550327
 31
0.0
  0
LINE
  5
7A
330
51
100
AcDbEntity
  8
DV1_Default
  6
Continuous
 62
     7
 48
25.4
100
AcDbLine
 10
239.0138628942
 20
373.6672219931
 30
0.0
 11
239.3638628942
 21
373.3172219931
 31
0.0
  0
LINE
  5
7B
330
51
100
AcDbEntity
  8
DV1_Default
  6
Continuous
 62
     7
 48
25.4
100
AcDbLine
 10
239.0138628942
 20
361.067550327
 30
0.0
 11
239.3638628942
 21
361.417550327
 31
0.0
  0
LINE
  5
7C
330
51
100
AcDbEntity
  8
DV1_Default
  6
Continuous
 62
     7
 48
25.4
100
AcDbLine
 10
239.0138628942
 20
373.6672219931
 30
0.0
 11
239.0138628942
 21
361.067550327
 31
0.0
  0
LINE
  5
7D
330
51
100
AcDbEntity
  8
DV1_Default
  6
Continuous
 62
     7
 48
25.4
100
AcDbLine
 10
249.8638628942
 20
353.0170645097
 30
0.0
 11
230.9638628942
 21
353.0170645097
 31
0.0
  0
LINE
  5
7E
330
51
100
AcDbEntity
  8
DV1_Default
  6
Continuous
 62
     7
 48
25.4
100
AcDbLine
 10
230.9638628942
 20
353.0170645097
 30
0.0
 11
230.9638628942
 21
339.7170645097
 31
0.0
  0
LINE
  5
7F
330
51
100
AcDbEntity
  8
DV1_Default
  6
Continuous
 62
     7
 48
25.4
100
AcDbLine
 10
230.9638628942
 20
339.7170645097
 30
0.0
 11
249.8638628942
 21
339.7170645097
 31
0.0
  0
LINE
  5
80
330
51
100
AcDbEntity
  8
DV1_Default
  6
Continuous
 62
     7
 48
25.4
100
AcDbLine
 10
230.9638628942
 20
341.758902376
 30
0.0
 11
223.9638628942
 21
341.758902376
 31
0.0
  0
LINE
  5
81
330
51
100
AcDbEntity
  8
DV1_Default
  6
Continuous
 62
     7
 48
25.4
100
AcDbLine
 10
230.9638628942
 20
350.858902376
 30
0.0
 11
223.9638628942
 21
350.858902376
 31
0.0
  0
LINE
  5
82
330
51
100
AcDbEntity
  8
DV1_Default
  6
Continuous
 62
     7
 48
25.4
100
AcDbLine
 10
220.9888628942
 20
339.3514991667
 30
0.0
 11
223.2638628942
 21
339.3514991667
 31
0.0
  0
LINE
  5
83
330
51
100
AcDbEntity
  8
DV1_Default
  6
Continuous
 62
     7
 48
25.4
100
AcDbLine
 10
230.9638628942
 20
342.2118149883
 30
0.0
 11
223.2638628942
 21
342.2118149883
 31
0.0
  0
LINE
  5
84
330
51
100
AcDbEntity
  8
DV1_Default
  6
Continuous
 62
     7
 48
25.4
100
AcDbLine
 10
227.4638628942
 20
342.6807242369
 30
0.0
 11
223.2638628942
 21
342.6807242369
 31
0.0
  0
LINE
  5
85
330
51
100
AcDbEntity
  8
DV1_Default
  6
Continuous
 62
     7
 48
25.4
100
AcDbLine
 10
230.9638628942
 20
350.4260552962
 30
0.0
 11
223.2638628942
 21
350.4260552962
 31
0.0
  0
LINE
  5
86
330
51
100
AcDbEntity
  8
DV1_Default
  6
Continuous
 62
     7
 48
25.4
100
AcDbLine
 10
227.4638628942
 20
349.9860067083
 30
0.0
 11
223.2638628942
 21
349.9860067083
 31
0.0
  0
LINE
  5
87
330
51
100
AcDbEntity
  8
DV1_Default
  6
Continuous
 62
     7
 48
25.4
100
AcDbLine
 10
230.9638628942
 20
339.7170645097
 30
0.0
 11
230.9638628942
 21
340.0670645097
 31
0.0
  0
LINE
  5
88
330
51
100
AcDbEntity
  8
DV1_Default
  6
Continuous
 62
     7
 48
25.4
100
AcDbLine
 10
230.9638628942
 20
340.0670645097
 30
0.0
 11
239.0138628942
 21
340.0670645097
 31
0.0
  0
LINE
  5
89
330
51
100
AcDbEntity
  8
DV1_Default
  6
Continuous
 62
     7
 48
25.4
100
AcDbLine
 10
239.3638628942
 20
340.4170645097
 30
0.0
 11
239.3638628942
 21
352.3167361759
 31
0.0
  0
LINE
  5
8A
330
51
100
AcDbEntity
  8
DV1_Default
  6
Continuous
 62
     7
 48
25.4
100
AcDbLine
 10
239.0138628942
 20
352.6667361759
 30
0.0
 11
230.9638628942
 21
352.6667361759
 31
0.0
  0
LINE
  5
8B
330
51
100
AcDbEntity
  8
DV1_Default
  6
Continuous
 62
     7
 48
25.4
100
AcDbLine
 10
239.0138628942
 20
340.0670645097
 30
0.0
 11
239.3638628942
 21
340.4170645097
 31
0.0
  0
LINE
  5
8C
330
51
100
AcDbEntity
  8
DV1_Default
  6
Continuous
 62
     7
 48
25.4
100
AcDbLine
 10
239.0138628942
 20
352.6667361759
 30
0.0
 11
239.3638628942
 21
352.3167361759
 31
0.0
  0
LINE
  5
8D
330
51
100
AcDbEntity
  8
DV1_Default
  6
Continuous
 62
     7
 48
25.4
100
AcDbLine
 10
239.0138628942
 20
340.0670645097
 30
0.0
 11
239.0138628942
 21
352.6667361759
 31
0.0
  0
LINE
  5
8E
330
51
100
AcDbEntity
  8
DV1_Default
  6
Continuous
 62
     7
 48
25.4
100
AcDbLine
 10
223.9638628942
 20
350.858902376
 30
0.0
 11
223.9638628942
 21
362.8753841269
 31
0.0
  0
LINE
  5
8F
330
51
100
AcDbEntity
  8
DV1_Default
  6
Continuous
 62
     7
 48
25.4
100
AcDbLine
 10
155.3591417989
 20
386.9952219931
 30
0.0
 11
156.7591417989
 21
388.3952219931
 31
0.0
  0
LINE
  5
90
330
51
100
AcDbEntity
  8
DV1_Default
  6
Continuous
 62
     7
 48
25.4
100
AcDbLine
 10
155.3591417989
 20
211.9952219931
 30
0.0
 11
156.7591417989
 21
210.5952219931
 31
0.0
  0
LINE
  5
91
330
51
100
AcDbEntity
  8
DV1_Default
  6
Continuous
 62
     7
 48
25.4
100
AcDbLine
 10
216.2638628942
 20
210.5952219931
 30
0.0
 11
217.6638628942
 21
211.9952219931
 31
0.0
  0
LINE
  5
92
330
51
100
AcDbEntity
  8
DV1_Default
  6
Continuous
 62
     7
 48
25.4
100
AcDbLine
 10
216.2638628942
 20
388.3952219931
 30
0.0
 11
217.6638628942
 21
386.9952219931
 31
0.0
  0
LINE
  5
93
330
51
100
AcDbEntity
  8
DV1_Default
  6
Continuous
 62
     7
 48
25.4
100
AcDbLine
 10
249.8638628942
 20
374.0172219931
 30
0.0
 11
249.8638628942
 21
360.7172219931
 31
0.0
  0
LINE
  5
94
330
51
100
AcDbEntity
  8
DV1_Default
  6
Continuous
 62
     7
 48
25.4
100
AcDbLine
 10
249.8638628942
 20
353.0170645097
 30
0.0
 11
249.8638628942
 21
339.7170645097
 31
0.0
  0
LINE
  5
95
330
51
100
AcDbEntity
  8
DV1_Default
  6
Continuous
 62
     7
 48
25.4
100
AcDbLine
 10
223.2638628942
 20
339.3514991667
 30
0.0
 11
223.2638628942
 21
377.8514991667
 31
0.0
  0
LINE
  5
96
330
51
100
AcDbEntity
  8
DV1_Default
  6
Continuous
 62
     7
 48
25.4
100
AcDbLine
 10
223.2638628942
 20
377.8514991667
 30
0.0
 11
220.9888628942
 21
377.8514991667
 31
0.0
  0
LINE
  5
97
330
51
100
AcDbEntity
  8
DV1_Default
  6
Continuous
 62
     7
 48
25.4
100
AcDbLine
 10
230.9638628942
 20
371.5224715146
 30
0.0
 11
227.4638628942
 21
371.5224715146
 31
0.0
  0
LINE
  5
98
330
51
100
AcDbEntity
  8
DV1_Default
  6
Continuous
 62
     7
 48
25.4
100
AcDbLine
 10
227.4638628942
 20
371.5224715146
 30
0.0
 11
227.4638628942
 21
363.3082312066
 31
0.0
  0
LINE
  5
99
330
51
100
AcDbEntity
  8
DV1_Default
  6
Continuous
 62
     7
 48
25.4
100
AcDbLine
 10
227.4638628942
 20
350.4260552962
 30
0.0
 11
227.4638628942
 21
342.2118149883
 31
0.0
  0
LINE
  5
9A
330
51
100
AcDbEntity
  8
DV1_Default
  6
Continuous
 62
     7
 48
25.4
100
AcDbLine
 10
220.4638628942
 20
387.3172219931
 30
0.0
 11
220.4638628942
 21
312.4172219931
 31
0.0
  0
LINE
  5
9B
330
51
100
AcDbEntity
  8
DV1_Default
  6
Continuous
 62
     7
 48
25.4
100
AcDbLine
 10
220.4638628942
 20
387.3172219931
 30
0.0
 11
221.5138628942
 21
388.3672219931
 31
0.0
  0
LINE
  5
9C
330
51
100
AcDbEntity
  8
DV1_Default
  6
Continuous
 62
     7
 48
25.4
100
AcDbLine
 10
220.9888628942
 20
387.8422219931
 30
0.0
 11
220.9888628942
 21
311.8922219931
 31
0.0
  0
LINE
  5
9D
330
51
100
AcDbEntity
  8
DV1_Default
  6
Continuous
 62
     7
 48
25.4
100
AcDbLine
 10
249.8638628942
 20
311.3672219931
 30
0.0
 11
221.5138628942
 21
311.3672219931
 31
0.0
  0
LINE
  5
9E
330
51
100
AcDbEntity
  8
DV1_Default
  6
Continuous
 62
     7
 48
25.4
100
AcDbLine
 10
221.5138628942
 20
311.3672219931
 30
0.0
 11
220.4638628942
 21
312.4172219931
 31
0.0
  0
LINE
  5
9F
330
51
100
AcDbEntity
  8
DV1_Default
  6
Continuous
 62
     7
 48
25.4
100
AcDbLine
 10
220.9888628942
 20
387.8422219931
 30
0.0
 11
185.9888628942
 21
387.8422219931
 31
0.0
  0
LINE
  5
A0
330
51
100
AcDbEntity
  8
DV1_Default
  6
Continuous
 62
     7
 48
25.4
100
AcDbLine
 10
158.8638628942
 20
375.7672219931
 30
0.0
 11
158.1638628942
 21
376.4672219931
 31
0.0
  0
LINE
  5
A1
330
51
100
AcDbEntity
  8
DV1_Default
  6
Continuous
 62
     7
 48
25.4
100
AcDbLine
 10
158.1638628942
 20
222.4672219931
 30
0.0
 11
158.8638628942
 21
223.1672219931
 31
0.0
  0
LINE
  5
A2
330
51
100
AcDbEntity
  8
DV1_Default
  6
Continuous
 62
     7
 48
25.4
100
AcDbLine
 10
158.8638628942
 20
315.2461170785
 30
0.0
 11
158.8638628942
 21
361.4280271584
 31
0.0
  0
LINE
  5
A3
330
51
100
AcDbEntity
  8
DV1_Default
  6
Continuous
 62
     7
 48
25.4
100
AcDbLine
 10
217.6638628942
 20
335.1672166316
 30
0.0
 11
217.6638628942
 21
299.4961170785
 31
0.0
  0
LINE
  5
A4
330
51
100
AcDbEntity
  8
DV1_Default
  6
Continuous
 62
     7
 48
25.4
100
AcDbLine
 10
217.6638628942
 20
256.7961170785
 30
0.0
 11
211.3638628942
 21
256.7961170785
 31
0.0
  0
LINE
  5
A5
330
51
100
AcDbEntity
  8
DV1_Default
  6
Continuous
 62
     7
 48
25.4
100
AcDbLine
 10
217.6638628942
 20
299.4961170785
 30
0.0
 11
217.6638628942
 21
287.5961170785
 31
0.0
  0
LINE
  5
A6
330
51
100
AcDbEntity
  8
DV1_Default
  6
Continuous
 62
     7
 48
25.4
100
AcDbLine
 10
217.6638628942
 20
287.5961170785
 30
0.0
 11
187.9138628942
 21
287.5961170785
 31
0.0
  0
LINE
  5
A7
330
51
100
AcDbEntity
  8
DV1_Default
  6
Continuous
 62
     7
 48
25.4
100
AcDbLine
 10
217.6638628942
 20
287.5961170785
 30
0.0
 11
217.6638628942
 21
286.1961170785
 31
0.0
  0
LINE
  5
A8
330
51
100
AcDbEntity
  8
DV1_Default
  6
Continuous
 62
     7
 48
25.4
100
AcDbLine
 10
213.1138628942
 20
286.1961170785
 30
0.0
 11
183.3638628942
 21
286.1961170785
 31
0.0
  0
LINE
  5
A9
330
51
100
AcDbEntity
  8
DV1_Default
  6
Continuous
 62
     7
 48
25.4
100
AcDbLine
 10
213.4638628942
 20
285.8461170785
 30
0.0
 11
213.4638628942
 21
265.1961170785
 31
0.0
  0
LINE
  5
AA
330
51
100
AcDbEntity
  8
DV1_Default
  6
Continuous
 62
     7
 48
25.4
100
AcDbLine
 10
211.3638628942
 20
282.3461170785
 30
0.0
 11
208.5638628942
 21
282.3461170785
 31
0.0
  0
LINE
  5
AB
330
51
100
AcDbEntity
  8
DV1_Default
  6
Continuous
 62
     7
 48
25.4
100
AcDbLine
 10
208.5638628942
 20
282.3461170785
 30
0.0
 11
208.5638628942
 21
286.1961170785
 31
0.0
  0
LINE
  5
AC
330
51
100
AcDbEntity
  8
DV1_Default
  6
Continuous
 62
     7
 48
25.4
100
AcDbLine
 10
213.4638628942
 20
265.1961170785
 30
0.0
 11
213.4638628942
 21
264.8461170785
 31
0.0
  0
LINE
  5
AD
330
51
100
AcDbEntity
  8
DV1_Default
  6
Continuous
 62
     7
 48
25.4
100
AcDbLine
 10
213.1138628942
 20
264.4961170785
 30
0.0
 11
211.3638628942
 21
264.4961170785
 31
0.0
  0
ARC
  5
AE
330
51
100
AcDbEntity
  8
DV1_Default
  6
Continuous
 62
     7
 48
25.4
100
AcDbCircle
 10
211.0138628942
 20
265.5461170785
 30
0.0
 40
0.35
100
AcDbArc
 50
270.0
 51
360.0
  0
ARC
  5
AF
330
51
100
AcDbEntity
  8
DV1_Default
  6
Continuous
 62
     7
 48
25.4
100
AcDbCircle
 10
213.1138628942
 20
264.8461170785
 30
0.0
 40
0.35
100
AcDbArc
 50
270.0
 51
360.0
  0
ARC
  5
B0
330
51
100
AcDbEntity
  8
DV1_Default
  6
Continuous
 62
     7
 48
25.4
100
AcDbCircle
 10
213.1138628942
 20
285.8461170785
 30
0.0
 40
0.35
100
AcDbArc
 50
0.0
 51
90.0
  0
LINE
  5
B1
330
51
100
AcDbEntity
  8
DV1_Default
  6
Continuous
 62
     7
 48
25.4
100
AcDbLine
 10
211.3638628942
 20
286.1961170785
 30
0.0
 11
211.3638628942
 21
262.9211170785
 31
0.0
  0
LINE
  5
B2
330
51
100
AcDbEntity
  8
DV1_Default
  6
Continuous
 62
     7
 48
25.4
100
AcDbLine
 10
65.7638628942
 20
284.7961170785
 30
0.0
 11
65.7638628942
 21
293.0211170785
 31
0.0
  0
LINE
  5
B3
330
51
100
AcDbEntity
  8
DV1_Default
  6
Continuous
 62
     7
 48
25.4
100
AcDbLine
 10
183.3638628942
 20
286.1961170785
 30
0.0
 11
186.8638628942
 21
286.1961170785
 31
0.0
  0
LINE
  5
B4
330
51
100
AcDbEntity
  8
DV1_Default
  6
Continuous
 62
     7
 48
25.4
100
AcDbLine
 10
102.1638628942
 20
287.5961170785
 30
0.0
 11
102.1638628942
 21
299.4961170785
 31
0.0
  0
LINE
  5
B5
330
51
100
AcDbEntity
  8
DV1_Default
  6
Continuous
 62
     7
 48
25.4
100
AcDbLine
 10
115.1138628942
 20
290.1161170785
 30
0.0
 11
115.1138628942
 21
299.4961170785
 31
0.0
  0
LINE
  5
B6
330
51
100
AcDbEntity
  8
DV1_Default
  6
Continuous
 62
     7
 48
25.4
100
AcDbLine
 10
40.5638628942
 20
293.5461170785
 30
0.0
 11
40.5638628942
 21
299.4961170785
 31
0.0
  0
LINE
  5
B7
330
51
100
AcDbEntity
  8
DV1_Default
  6
Continuous
 62
     7
 48
25.4
100
AcDbLine
 10
40.5638628942
 20
293.5461170785
 30
0.0
 11
41.6138628942
 21
292.4961170785
 31
0.0
  0
LINE
  5
B8
330
51
100
AcDbEntity
  8
DV1_Default
  6
Continuous
 62
     7
 48
25.4
100
AcDbLine
 10
41.6138628942
 20
292.4961170785
 30
0.0
 11
41.6138628942
 21
299.4961170785
 31
0.0
  0
LINE
  5
B9
330
51
100
AcDbEntity
  8
DV1_Default
  6
Continuous
 62
     7
 48
25.4
100
AcDbLine
 10
65.7638628942
 20
284.7961170785
 30
0.0
 11
66.8138628942
 21
283.7461170785
 31
0.0
  0
LINE
  5
BA
330
51
100
AcDbEntity
  8
DV1_Default
  6
Continuous
 62
     7
 48
25.4
100
AcDbLine
 10
83.2638628942
 20
293.0211170785
 30
0.0
 11
83.2638628942
 21
288.9161062114
 31
0.0
  0
LINE
  5
BB
330
51
100
AcDbEntity
  8
DV1_Default
  6
Continuous
 62
     7
 48
25.4
100
AcDbLine
 10
84.6638628942
 20
292.4961170785
 30
0.0
 11
84.6638628942
 21
299.4961170785
 31
0.0
  0
LINE
  5
BC
330
51
100
AcDbEntity
  8
DV1_Default
  6
Continuous
 62
     7
 48
25.4
100
AcDbLine
 10
187.9138628942
 20
287.5961170785
 30
0.0
 11
186.8638628942
 21
286.5461170785
 31
0.0
  0
LINE
  5
BD
330
51
100
AcDbEntity
  8
DV1_Default
  6
Continuous
 62
     7
 48
25.4
100
AcDbLine
 10
186.8638628942
 20
286.1961170785
 30
0.0
 11
186.8638628942
 21
299.4961170785
 31
0.0
  0
LINE
  5
BE
330
51
100
AcDbEntity
  8
DV1_Default
  6
Continuous
 62
     7
 48
25.4
100
AcDbLine
 10
187.9138628942
 20
287.5961170785
 30
0.0
 11
187.9138628942
 21
299.4961170785
 31
0.0
  0
LINE
  5
BF
330
51
100
AcDbEntity
  8
DV1_Default
  6
CENTER2
 62
     7
 48
25.4
100
AcDbLine
 10
218.1744971332
 20
260.9961170785
 30
0.0
 11
204.9133821528
 21
260.9961170785
 31
0.0
  0
LINE
  5
C0
330
51
100
AcDbEntity
  8
DV1_Default
  6
Continuous
 62
     7
 48
25.4
100
AcDbLine
 10
217.6638628942
 20
257.8461170785
 30
0.0
 11
214.5138628942
 21
257.8461170785
 31
0.0
  0
LINE
  5
C1
330
51
100
AcDbEntity
  8
DV1_Default
  6
Continuous
 62
     7
 48
25.4
100
AcDbLine
 10
214.5138628942
 20
257.8461170785
 30
0.0
 11
214.5138628942
 21
260.9961170785
 31
0.0
  0
LINE
  5
C2
330
51
100
AcDbEntity
  8
DV1_Default
  6
Continuous
 62
     7
 48
25.4
100
AcDbLine
 10
216.9638628942
 20
258.0211170785
 30
0.0
 11
214.5138628942
 21
258.0211170785
 31
0.0
  0
LINE
  5
C3
330
51
100
AcDbEntity
  8
DV1_Default
  6
Continuous
 62
     7
 48
25.4
100
AcDbLine
 10
217.3138628942
 20
258.3711170785
 30
0.0
 11
217.3138628942
 21
260.9961170785
 31
0.0
  0
LINE
  5
C4
330
51
100
AcDbEntity
  8
DV1_Default
  6
Continuous
 62
     7
 48
25.4
100
AcDbLine
 10
216.9638628942
 20
258.0211170785
 30
0.0
 11
217.3138628942
 21
258.3711170785
 31
0.0
  0
LINE
  5
C5
330
51
100
AcDbEntity
  8
DV1_Default
  6
Continuous
 62
     7
 48
25.4
100
AcDbLine
 10
216.9638628942
 20
258.0211170785
 30
0.0
 11
216.9638628942
 21
260.9961170785
 31
0.0
  0
LINE
  5
C6
330
51
100
AcDbEntity
  8
DV1_Default
  6
Continuous
 62
     7
 48
25.4
100
AcDbLine
 10
214.5138628942
 20
259.2461170785
 30
0.0
 11
205.7638628942
 21
259.2461170785
 31
0.0
  0
LINE
  5
C7
330
51
100
AcDbEntity
  8
DV1_Default
  6
Continuous
 62
     7
 48
25.4
100
AcDbLine
 10
211.3638628942
 20
259.0711170785
 30
0.0
 11
211.3638628942
 21
256.7961170785
 31
0.0
  0
LINE
  5
C8
330
51
100
AcDbEntity
  8
DV1_Default
  6
Continuous
 62
     7
 48
25.4
100
AcDbLine
 10
214.5138628942
 20
259.0711170785
 30
0.0
 11
211.3638628942
 21
259.0711170785
 31
0.0
  0
LINE
  5
C9
330
51
100
AcDbEntity
  8
DV1_Default
  6
Continuous
 62
     7
 48
25.4
100
AcDbLine
 10
214.5138628942
 20
259.5961170785
 30
0.0
 11
205.7638628942
 21
259.5961170785
 31
0.0
  0
LINE
  5
CA
330
51
100
AcDbEntity
  8
DV1_Default
  6
Continuous
 62
     7
 48
25.4
100
AcDbLine
 10
217.6638628942
 20
264.1461170785
 30
0.0
 11
214.5138628942
 21
264.1461170785
 31
0.0
  0
LINE
  5
CB
330
51
100
AcDbEntity
  8
DV1_Default
  6
Continuous
 62
     7
 48
25.4
100
AcDbLine
 10
214.5138628942
 20
264.1461170785
 30
0.0
 11
214.5138628942
 21
260.9961170785
 31
0.0
  0
LINE
  5
CC
330
51
100
AcDbEntity
  8
DV1_Default
  6
Continuous
 62
     7
 48
25.4
100
AcDbLine
 10
216.9638628942
 20
263.9711170785
 30
0.0
 11
214.5138628942
 21
263.9711170785
 31
0.0
  0
LINE
  5
CD
330
51
100
AcDbEntity
  8
DV1_Default
  6
Continuous
 62
     7
 48
25.4
100
AcDbLine
 10
217.3138628942
 20
263.6211170785
 30
0.0
 11
217.3138628942
 21
260.9961170785
 31
0.0
  0
LINE
  5
CE
330
51
100
AcDbEntity
  8
DV1_Default
  6
Continuous
 62
     7
 48
25.4
100
AcDbLine
 10
216.9638628942
 20
263.9711170785
 30
0.0
 11
217.3138628942
 21
263.6211170785
 31
0.0
  0
LINE
  5
CF
330
51
100
AcDbEntity
  8
DV1_Default
  6
Continuous
 62
     7
 48
25.4
100
AcDbLine
 10
216.9638628942
 20
263.9711170785
 30
0.0
 11
216.9638628942
 21
260.9961170785
 31
0.0
  0
LINE
  5
D0
330
51
100
AcDbEntity
  8
DV1_Default
  6
Continuous
 62
     7
 48
25.4
100
AcDbLine
 10
214.5138628942
 20
262.7461170785
 30
0.0
 11
205.7638628942
 21
262.7461170785
 31
0.0
  0
LINE
  5
D1
330
51
100
AcDbEntity
  8
DV1_Default
  6
Continuous
 62
     7
 48
25.4
100
AcDbLine
 10
214.5138628942
 20
262.9211170785
 30
0.0
 11
211.3638628942
 21
262.9211170785
 31
0.0
  0
LINE
  5
D2
330
51
100
AcDbEntity
  8
DV1_Default
  6
Continuous
 62
     7
 48
25.4
100
AcDbLine
 10
214.5138628942
 20
262.3961170785
 30
0.0
 11
205.7638628942
 21
262.3961170785
 31
0.0
  0
LINE
  5
D3
330
51
100
AcDbEntity
  8
DV1_Default
  6
Continuous
 62
     7
 48
25.4
100
AcDbLine
 10
205.7638628942
 20
259.2461170785
 30
0.0
 11
205.7638628942
 21
262.7461170785
 31
0.0
  0
LINE
  5
D4
330
51
100
AcDbEntity
  8
DV1_Default
  6
CENTER2
 62
     7
 48
25.4
100
AcDbLine
 10
80.6150008097
 20
287.2711062114
 30
0.0
 11
95.1220474684
 21
287.2711062114
 31
0.0
  0
CIRCLE
  5
D5
330
51
100
AcDbEntity
  8
DV1_Default
  6
Continuous
 62
     7
 48
25.4
100
AcDbCircle
 10
84.1773569892
 20
287.2711062114
 30
0.0
 40
1.645
  0
LINE
  5
D6
330
51
100
AcDbEntity
  8
DV1_Default
  6
Continuous
 62
     7
 48
25.4
100
AcDbLine
 10
83.2638628942
 20
288.9161062114
 30
0.0
 11
93.7638628942
 21
288.9161062114
 31
0.0
  0
LINE
  5
D7
330
51
100
AcDbEntity
  8
DV1_Default
  6
Continuous
 62
     7
 48
25.4
100
AcDbLine
 10
93.7638628942
 20
288.9161062114
 30
0.0
 11
94.713604087
 21
287.2711062114
 31
0.0
  0
LINE
  5
D8
330
51
100
AcDbEntity
  8
DV1_Default
  6
Continuous
 62
     7
 48
25.4
100
AcDbLine
 10
94.713604087
 20
287.2711062114
 30
0.0
 11
93.7638628942
 21
285.6261062114
 31
0.0
  0
LINE
  5
D9
330
51
100
AcDbEntity
  8
DV1_Default
  6
Continuous
 62
     7
 48
25.4
100
AcDbLine
 10
93.7638628942
 20
285.6261062114
 30
0.0
 11
83.2638628942
 21
285.6261062114
 31
0.0
  0
LINE
  5
DA
330
51
100
AcDbEntity
  8
DV1_Default
  6
Continuous
 62
     7
 48
25.4
100
AcDbLine
 10
93.7638628942
 20
288.9161062114
 30
0.0
 11
93.7638628942
 21
285.6261062114
 31
0.0
  0
LINE
  5
DB
330
51
100
AcDbEntity
  8
DV1_Default
  6
Continuous
 62
     7
 48
25.4
100
AcDbLine
 10
83.2638628942
 20
288.9161062114
 30
0.0
 11
82.2394700991
 21
287.2711062114
 31
0.0
  0
LINE
  5
DC
330
51
100
AcDbEntity
  8
DV1_Default
  6
Continuous
 62
     7
 48
25.4
100
AcDbLine
 10
82.2394700991
 20
287.2711062114
 30
0.0
 11
83.2638628942
 21
285.6261062114
 31
0.0
  0
LINE
  5
DD
330
51
100
AcDbEntity
  8
DV1_Default
  6
Continuous
 62
     7
 48
25.4
100
AcDbLine
 10
85.8223569892
 20
287.2711062114
 30
0.0
 11
85.8223569892
 21
288.6711062114
 31
0.0
  0
LINE
  5
DE
330
51
100
AcDbEntity
  8
DV1_Default
  6
Continuous
 62
     7
 48
25.4
100
AcDbLine
 10
85.8223569892
 20
287.2711062114
 30
0.0
 11
85.8223569892
 21
285.8711062114
 31
0.0
  0
LINE
  5
DF
330
51
100
AcDbEntity
  8
DV1_Default
  6
Continuous
 62
     7
 48
25.4
100
AcDbLine
 10
85.8223569892
 20
285.8711062114
 30
0.0
 11
86.572614728
 21
288.6711062114
 31
0.0
  0
LINE
  5
E0
330
51
100
AcDbEntity
  8
DV1_Default
  6
Continuous
 62
     7
 48
25.4
100
AcDbLine
 10
86.572614728
 20
288.6711062114
 30
0.0
 11
86.572614728
 21
285.8711062114
 31
0.0
  0
LINE
  5
E1
330
51
100
AcDbEntity
  8
DV1_Default
  6
Continuous
 62
     7
 48
25.4
100
AcDbLine
 10
86.572614728
 20
285.8711062114
 30
0.0
 11
87.3228724668
 21
288.6711062114
 31
0.0
  0
LINE
  5
E2
330
51
100
AcDbEntity
  8
DV1_Default
  6
Continuous
 62
     7
 48
25.4
100
AcDbLine
 10
87.3228724668
 20
288.6711062114
 30
0.0
 11
87.3228724668
 21
285.8711062114
 31
0.0
  0
LINE
  5
E3
330
51
100
AcDbEntity
  8
DV1_Default
  6
Continuous
 62
     7
 48
25.4
100
AcDbLine
 10
87.3228724668
 20
285.8711062114
 30
0.0
 11
88.0731302056
 21
288.6711062114
 31
0.0
  0
LINE
  5
E4
330
51
100
AcDbEntity
  8
DV1_Default
  6
Continuous
 62
     7
 48
25.4
100
AcDbLine
 10
88.0731302056
 20
288.6711062114
 30
0.0
 11
88.0731302056
 21
285.8711062114
 31
0.0
  0
LINE
  5
E5
330
51
100
AcDbEntity
  8
DV1_Default
  6
Continuous
 62
     7
 48
25.4
100
AcDbLine
 10
88.0731302056
 20
285.8711062114
 30
0.0
 11
88.8233879444
 21
288.6711062114
 31
0.0
  0
LINE
  5
E6
330
51
100
AcDbEntity
  8
DV1_Default
  6
Continuous
 62
     7
 48
25.4
100
AcDbLine
 10
88.8233879444
 20
288.6711062114
 30
0.0
 11
88.8233879444
 21
285.8711062114
 31
0.0
  0
LINE
  5
E7
330
51
100
AcDbEntity
  8
DV1_Default
  6
Continuous
 62
     7
 48
25.4
100
AcDbLine
 10
88.8233879444
 20
285.8711062114
 30
0.0
 11
89.5736456832
 21
288.6711062114
 31
0.0
  0
LINE
  5
E8
330
51
100
AcDbEntity
  8
DV1_Default
  6
Continuous
 62
     7
 48
25.4
100
AcDbLine
 10
89.5736456832
 20
288.6711062114
 30
0.0
 11
89.5736456832
 21
285.8711062114
 31
0.0
  0
LINE
  5
E9
330
51
100
AcDbEntity
  8
DV1_Default
  6
Continuous
 62
     7
 48
25.4
100
AcDbLine
 10
89.5736456832
 20
285.8711062114
 30
0.0
 11
90.2934423618
 21
288.5574239873
 31
0.0
  0
LINE
  5
EA
330
51
100
AcDbEntity
  8
DV1_Default
  6
Continuous
 62
     7
 48
25.4
100
AcDbLine
 10
90.2934423618
 20
288.5574239873
 30
0.0
 11
90.2934423618
 21
285.8711062114
 31
0.0
  0
LINE
  5
EB
330
51
100
AcDbEntity
  8
DV1_Default
  6
Continuous
 62
     7
 48
25.4
100
AcDbLine
 10
90.2934423618
 20
285.8711062114
 30
0.0
 11
91.0132390405
 21
288.5574239873
 31
0.0
  0
LINE
  5
EC
330
51
100
AcDbEntity
  8
DV1_Default
  6
Continuous
 62
     7
 48
25.4
100
AcDbLine
 10
91.0132390405
 20
288.5574239873
 30
0.0
 11
91.0132390405
 21
285.8711062114
 31
0.0
  0
LINE
  5
ED
330
51
100
AcDbEntity
  8
DV1_Default
  6
Continuous
 62
     7
 48
25.4
100
AcDbLine
 10
91.0132390405
 20
285.8711062114
 30
0.0
 11
91.7330357191
 21
288.5574239873
 31
0.0
  0
LINE
  5
EE
330
51
100
AcDbEntity
  8
DV1_Default
  6
Continuous
 62
     7
 48
25.4
100
AcDbLine
 10
91.7330357191
 20
288.5574239873
 30
0.0
 11
91.7330357191
 21
285.8711062114
 31
0.0
  0
LINE
  5
EF
330
51
100
AcDbEntity
  8
DV1_Default
  6
Continuous
 62
     7
 48
25.4
100
AcDbLine
 10
91.7330357191
 20
285.8711062114
 30
0.0
 11
92.4528323978
 21
288.5574239873
 31
0.0
  0
LINE
  5
F0
330
51
100
AcDbEntity
  8
DV1_Default
  6
Continuous
 62
     7
 48
25.4
100
AcDbLine
 10
92.4528323978
 20
288.5574239873
 30
0.0
 11
92.4528323978
 21
285.8711062114
 31
0.0
  0
LINE
  5
F1
330
51
100
AcDbEntity
  8
DV1_Default
  6
Continuous
 62
     7
 48
25.4
100
AcDbLine
 10
92.4528323978
 20
285.8711062114
 30
0.0
 11
93.1726290764
 21
288.5574239873
 31
0.0
  0
LINE
  5
F2
330
51
100
AcDbEntity
  8
DV1_Default
  6
Continuous
 62
     7
 48
25.4
100
AcDbLine
 10
93.1726290764
 20
288.5574239873
 30
0.0
 11
93.1726290764
 21
285.8711062114
 31
0.0
  0
LINE
  5
F3
330
51
100
AcDbEntity
  8
DV1_Default
  6
Continuous
 62
     7
 48
25.4
100
AcDbLine
 10
93.1726290764
 20
285.8711062114
 30
0.0
 11
93.7638628942
 21
288.5574239873
 31
0.0
  0
LINE
  5
F4
330
51
100
AcDbEntity
  8
DV1_Default
  6
Continuous
 62
     7
 48
25.4
100
AcDbLine
 10
72.4138628942
 20
291.4461170785
 30
0.0
 11
78.0138628942
 21
291.4461170785
 31
0.0
  0
LINE
  5
F5
330
51
100
AcDbEntity
  8
DV1_Default
  6
Continuous
 62
     7
 48
25.4
100
AcDbLine
 10
73.3285699814
 20
284.4489170785
 30
0.0
 11
77.0991558071
 21
284.4489170785
 31
0.0
  0
LINE
  5
F6
330
51
100
AcDbEntity
  8
DV1_Default
  6
Continuous
 62
     7
 48
25.4
100
AcDbLine
 10
73.3285699814
 20
284.4489170785
 30
0.0
 11
72.4138628942
 21
284.9770234615
 31
0.0
  0
LINE
  5
F7
330
51
100
AcDbEntity
  8
DV1_Default
  6
Continuous
 62
     7
 48
25.4
100
AcDbLine
 10
72.4138628942
 20
284.9770234615
 30
0.0
 11
78.0138628942
 21
284.9770234615
 31
0.0
  0
LINE
  5
F8
330
51
100
AcDbEntity
  8
DV1_Default
  6
Continuous
 62
     7
 48
25.4
100
AcDbLine
 10
78.0138628942
 20
284.9770234615
 30
0.0
 11
77.0991558071
 21
284.4489170785
 31
0.0
  0
LINE
  5
F9
330
51
100
AcDbEntity
  8
DV1_Default
  6
CENTER2
 62
     7
 48
25.4
100
AcDbLine
 10
75.2138628942
 20
283.2735810002
 30
0.0
 11
75.2138628942
 21
294.0545622786
 31
0.0
  0
LINE
  5
FA
330
51
100
AcDbEntity
  8
DV1_Default
  6
Continuous
 62
     7
 48
25.4
100
AcDbLine
 10
83.2638628942
 20
285.6261062114
 30
0.0
 11
83.2638628942
 21
283.7461170785
 31
0.0
  0
LINE
  5
FB
330
51
100
AcDbEntity
  8
DV1_Default
  6
Continuous
 62
     7
 48
25.4
100
AcDbLine
 10
72.4138628942
 20
291.4461170785
 30
0.0
 11
73.4638628942
 21
292.4961170785
 31
0.0
  0
LINE
  5
FC
330
51
100
AcDbEntity
  8
DV1_Default
  6
Continuous
 62
     7
 48
25.4
100
AcDbLine
 10
78.0138628942
 20
291.4461170785
 30
0.0
 11
76.9638628942
 21
292.4961170785
 31
0.0
  0
LINE
  5
FD
330
51
100
AcDbEntity
  8
DV1_Default
  6
Continuous
 62
     7
 48
25.4
100
AcDbLine
 10
72.4138628942
 20
291.4461170785
 30
0.0
 11
72.4138628942
 21
284.9770234615
 31
0.0
  0
LINE
  5
FE
330
51
100
AcDbEntity
  8
DV1_Default
  6
Continuous
 62
     7
 48
25.4
100
AcDbLine
 10
73.1138628942
 20
291.4461170785
 30
0.0
 11
73.1138628942
 21
284.9770234615
 31
0.0
  0
LINE
  5
FF
330
51
100
AcDbEntity
  8
DV1_Default
  6
Continuous
 62
     7
 48
25.4
100
AcDbLine
 10
77.3138628942
 20
291.4461170785
 30
0.0
 11
77.3138628942
 21
284.9770234615
 31
0.0
  0
LINE
  5
100
330
51
100
AcDbEntity
  8
DV1_Default
  6
Continuous
 62
     7
 48
25.4
100
AcDbLine
 10
78.0138628942
 20
291.4461170785
 30
0.0
 11
78.0138628942
 21
284.9770234615
 31
0.0
  0
LINE
  5
101
330
51
100
AcDbEntity
  8
DV1_Default
  6
Continuous
 62
     7
 48
25.4
100
AcDbLine
 10
115.1138628942
 20
290.1161170785
 30
0.0
 11
102.1638628942
 21
290.1161170785
 31
0.0
  0
LINE
  5
102
330
51
100
AcDbEntity
  8
DV1_Default
  6
Continuous
 62
     7
 48
25.4
100
AcDbLine
 10
115.1138628942
 20
290.1161170785
 30
0.0
 11
116.1638628942
 21
291.1661170785
 31
0.0
  0
ARC
  5
103
330
51
100
AcDbEntity
  8
DV1_Default
  6
Continuous
 62
     7
 48
25.4
100
AcDbCircle
 10
179.1501501516
 20
277.4461170785
 30
0.0
 40
0.7000000000000001
100
AcDbArc
 50
0.0
 51
90.0
  0
LINE
  5
104
330
51
100
AcDbEntity
  8
DV1_Default
  6
Continuous
 62
     7
 48
25.4
100
AcDbLine
 10
179.1501501516
 20
283.7461170785
 30
0.0
 11
179.1501501516
 21
278.8461170785
 31
0.0
  0
LINE
  5
105
330
51
100
AcDbEntity
  8
DV1_Default
  6
Continuous
 62
     7
 48
25.4
100
AcDbLine
 10
176.0001501516
 20
278.8461170785
 30
0.0
 11
176.0001501516
 21
283.7461170785
 31
0.0
  0
LINE
  5
106
330
51
100
AcDbEntity
  8
DV1_Default
  6
Continuous
 62
     7
 48
25.4
100
AcDbLine
 10
178.8001501516
 20
278.8461170785
 30
0.0
 11
178.8001501516
 21
283.7461170785
 31
0.0
  0
LINE
  5
107
330
51
100
AcDbEntity
  8
DV1_Default
  6
Continuous
 62
     7
 48
25.4
100
AcDbLine
 10
175.6501501516
 20
283.0461170785
 30
0.0
 11
179.1501501516
 21
283.0461170785
 31
0.0
  0
LINE
  5
108
330
51
100
AcDbEntity
  8
DV1_Default
  6
Continuous
 62
     7
 48
25.4
100
AcDbLine
 10
175.6501501516
 20
279.5461170785
 30
0.0
 11
179.1501501516
 21
279.5461170785
 31
0.0
  0
LINE
  5
109
330
51
100
AcDbEntity
  8
DV1_Default
  6
Continuous
 62
     7
 48
25.4
100
AcDbLine
 10
175.6501501516
 20
283.0461170785
 30
0.0
 11
176.5944660653
 21
283.7461170785
 31
0.0
  0
LINE
  5
10A
330
51
100
AcDbEntity
  8
DV1_Default
  6
Continuous
 62
     7
 48
25.4
100
AcDbLine
 10
178.2058660653
 20
283.7461170785
 30
0.0
 11
179.1501501516
 21
283.0461170785
 31
0.0
  0
LINE
  5
10B
330
51
100
AcDbEntity
  8
DV1_Default
  6
Continuous
 62
     7
 48
25.4
100
AcDbLine
 10
175.6501501516
 20
279.5461170785
 30
0.0
 11
176.2563679343
 21
279.1961170785
 31
0.0
  0
LINE
  5
10C
330
51
100
AcDbEntity
  8
DV1_Default
  6
Continuous
 62
     7
 48
25.4
100
AcDbLine
 10
179.1501501516
 20
279.5461170785
 30
0.0
 11
178.543932369
 21
279.1961170785
 31
0.0
  0
LINE
  5
10D
330
51
100
AcDbEntity
  8
DV1_Default
  6
Continuous
 62
     7
 48
25.4
100
AcDbLine
 10
178.543932369
 20
279.1961170785
 30
0.0
 11
176.2563679343
 21
279.1961170785
 31
0.0
  0
ARC
  5
10E
330
51
100
AcDbEntity
  8
DV1_Default
  6
Continuous
 62
     7
 48
25.4
100
AcDbCircle
 10
179.1501501516
 20
277.4461170785
 30
0.0
 40
0.7000000000000001
100
AcDbArc
 50
0.0
 51
90.0
  0
LINE
  5
10F
330
51
100
AcDbEntity
  8
DV1_Default
  6
Continuous
 62
     7
 48
25.4
100
AcDbLine
 10
176.0001501516
 20
278.8461170785
 30
0.0
 11
176.0001501516
 21
283.7461170785
 31
0.0
  0
LINE
  5
110
330
51
100
AcDbEntity
  8
DV1_Default
  6
Continuous
 62
     7
 48
25.4
100
AcDbLine
 10
175.6501501516
 20
279.5461170785
 30
0.0
 11
176.2563679343
 21
279.1961170785
 31
0.0
  0
LINE
  5
111
330
51
100
AcDbEntity
  8
DV1_Default
  6
Continuous
 62
     7
 48
25.4
100
AcDbLine
 10
179.1501501516
 20
279.5461170785
 30
0.0
 11
178.543932369
 21
279.1961170785
 31
0.0
  0
ARC
  5
112
330
51
100
AcDbEntity
  8
DV1_Default
  6
Continuous
 62
     7
 48
25.4
100
AcDbCircle
 10
179.1501501516
 20
277.4461170785
 30
0.0
 40
0.7000000000000001
100
AcDbArc
 50
0.0
 51
90.0
  0
LINE
  5
113
330
51
100
AcDbEntity
  8
DV1_Default
  6
Continuous
 62
     7
 48
25.4
100
AcDbLine
 10
176.0001501516
 20
278.8461170785
 30
0.0
 11
176.0001501516
 21
283.7461170785
 31
0.0
  0
LINE
  5
114
330
51
100
AcDbEntity
  8
DV1_Default
  6
Continuous
 62
     7
 48
25.4
100
AcDbLine
 10
175.6501501516
 20
279.5461170785
 30
0.0
 11
176.2563679343
 21
279.1961170785
 31
0.0
  0
LINE
  5
115
330
51
100
AcDbEntity
  8
DV1_Default
  6
Continuous
 62
     7
 48
25.4
100
AcDbLine
 10
179.1501501516
 20
279.5461170785
 30
0.0
 11
178.543932369
 21
279.1961170785
 31
0.0
  0
LINE
  5
116
330
51
100
AcDbEntity
  8
DV1_Default
  6
Continuous
 62
     7
 48
25.4
100
AcDbLine
 10
173.5501501516
 20
278.8461170785
 30
0.0
 11
174.2501501516
 21
278.1461170785
 31
0.0
  0
LINE
  5
117
330
51
100
AcDbEntity
  8
DV1_Default
  6
Continuous
 62
     7
 48
25.4
100
AcDbLine
 10
170.3307791456
 20
284.4461170785
 30
0.0
 11
183.3638628942
 21
284.4461170785
 31
0.0
  0
LINE
  5
118
330
51
100
AcDbEntity
  8
DV1_Default
  6
Continuous
 62
     7
 48
25.4
100
AcDbLine
 10
179.1501501516
 20
278.1461170785
 30
0.0
 11
179.1501501516
 21
278.8461170785
 31
0.0
  0
LINE
  5
119
330
51
100
AcDbEntity
  8
DV1_Default
  6
Continuous
 62
     7
 48
25.4
100
AcDbLine
 10
178.8001501516
 20
278.8461170785
 30
0.0
 11
178.8001501516
 21
278.1461170785
 31
0.0
  0
LINE
  5
11A
330
51
100
AcDbEntity
  8
DV1_Default
  6
Continuous
 62
     7
 48
25.4
100
AcDbLine
 10
176.0001501516
 20
278.8461170785
 30
0.0
 11
176.0001501516
 21
278.1461170785
 31
0.0
  0
LINE
  5
11B
330
51
100
AcDbEntity
  8
DV1_Default
  6
Continuous
 62
     7
 48
25.4
100
AcDbLine
 10
179.8501501516
 20
277.4461170785
 30
0.0
 11
179.8501501516
 21
265.8961170785
 31
0.0
  0
ARC
  5
11C
330
51
100
AcDbEntity
  8
DV1_Default
  6
Continuous
 62
     7
 48
25.4
100
AcDbCircle
 10
180.5501501516
 20
265.8961170785
 30
0.0
 40
0.7000000000000001
100
AcDbArc
 50
180.0
 51
270.0
  0
LINE
  5
11D
330
51
100
AcDbEntity
  8
DV1_Default
  6
Continuous
 62
     7
 48
25.4
100
AcDbLine
 10
181.6138628942
 20
287.5961170785
 30
0.0
 11
183.3638628942
 21
285.8461170785
 31
0.0
  0
LINE
  5
11E
330
51
100
AcDbEntity
  8
DV1_Default
  6
Continuous
 62
     7
 48
25.4
100
AcDbLine
 10
183.3638628942
 20
283.7461170785
 30
0.0
 11
183.3638628942
 21
299.4961170785
 31
0.0
  0
LINE
  5
11F
330
51
100
AcDbEntity
  8
DV1_Default
  6
Continuous
 62
     7
 48
25.4
100
AcDbLine
 10
181.6138628942
 20
287.5961170785
 30
0.0
 11
181.6138628942
 21
299.4961170785
 31
0.0
  0
LINE
  5
120
330
51
100
AcDbEntity
  8
DV1_Default
  6
Continuous
 62
     7
 48
25.4
100
AcDbLine
 10
173.5501501516
 20
278.8461170785
 30
0.0
 11
173.5501501516
 21
284.4461170785
 31
0.0
  0
LINE
  5
121
330
51
100
AcDbEntity
  8
DV1_Default
  6
Continuous
 62
     7
 48
25.4
100
AcDbLine
 10
217.6638628942
 20
299.4961170785
 30
0.0
 11
217.6638628942
 21
311.3961170785
 31
0.0
  0
LINE
  5
122
330
51
100
AcDbEntity
  8
DV1_Default
  6
Continuous
 62
     7
 48
25.4
100
AcDbLine
 10
217.6638628942
 20
311.3961170785
 30
0.0
 11
187.9138628942
 21
311.3961170785
 31
0.0
  0
LINE
  5
123
330
51
100
AcDbEntity
  8
DV1_Default
  6
Continuous
 62
     7
 48
25.4
100
AcDbLine
 10
217.6638628942
 20
311.3961170785
 30
0.0
 11
217.6638628942
 21
312.7961170785
 31
0.0
  0
LINE
  5
124
330
51
100
AcDbEntity
  8
DV1_Default
  6
Continuous
 62
     7
 48
25.4
100
AcDbLine
 10
211.0138628942
 20
312.7961170785
 30
0.0
 11
183.3638628942
 21
312.7961170785
 31
0.0
  0
LINE
  5
125
330
51
100
AcDbEntity
  8
DV1_Default
  6
Continuous
 62
     7
 48
25.4
100
AcDbLine
 10
65.7638628942
 20
314.1961170785
 30
0.0
 11
65.7638628942
 21
305.9711170785
 31
0.0
  0
LINE
  5
126
330
51
100
AcDbEntity
  8
DV1_Default
  6
Continuous
 62
     7
 48
25.4
100
AcDbLine
 10
183.3638628942
 20
312.7961170785
 30
0.0
 11
186.8638628942
 21
312.7961170785
 31
0.0
  0
LINE
  5
127
330
51
100
AcDbEntity
  8
DV1_Default
  6
Continuous
 62
     7
 48
25.4
100
AcDbLine
 10
102.1638628942
 20
311.3961170785
 30
0.0
 11
102.1638628942
 21
299.4961170785
 31
0.0
  0
LINE
  5
128
330
51
100
AcDbEntity
  8
DV1_Default
  6
Continuous
 62
     7
 48
25.4
100
AcDbLine
 10
115.1138628942
 20
308.8761170785
 30
0.0
 11
115.1138628942
 21
299.4961170785
 31
0.0
  0
LINE
  5
129
330
51
100
AcDbEntity
  8
DV1_Default
  6
Continuous
 62
     7
 48
25.4
100
AcDbLine
 10
40.5638628942
 20
305.4461170785
 30
0.0
 11
40.5638628942
 21
299.4961170785
 31
0.0
  0
LINE
  5
12A
330
51
100
AcDbEntity
  8
DV1_Default
  6
Continuous
 62
     7
 48
25.4
100
AcDbLine
 10
40.5638628942
 20
305.4461170785
 30
0.0
 11
41.6138628942
 21
306.4961170785
 31
0.0
  0
LINE
  5
12B
330
51
100
AcDbEntity
  8
DV1_Default
  6
Continuous
 62
     7
 48
25.4
100
AcDbLine
 10
41.6138628942
 20
306.4961170785
 30
0.0
 11
41.6138628942
 21
299.4961170785
 31
0.0
  0
LINE
  5
12C
330
51
100
AcDbEntity
  8
DV1_Default
  6
Continuous
 62
     7
 48
25.4
100
AcDbLine
 10
65.7638628942
 20
314.1961170785
 30
0.0
 11
66.8138628942
 21
315.2461170785
 31
0.0
  0
LINE
  5
12D
330
51
100
AcDbEntity
  8
DV1_Default
  6
Continuous
 62
     7
 48
25.4
100
AcDbLine
 10
84.6638628942
 20
306.4961170785
 30
0.0
 11
84.6638628942
 21
299.4961170785
 31
0.0
  0
LINE
  5
12E
330
51
100
AcDbEntity
  8
DV1_Default
  6
Continuous
 62
     7
 48
25.4
100
AcDbLine
 10
187.9138628942
 20
311.3961170785
 30
0.0
 11
186.8638628942
 21
312.4461170785
 31
0.0
  0
LINE
  5
12F
330
51
100
AcDbEntity
  8
DV1_Default
  6
Continuous
 62
     7
 48
25.4
100
AcDbLine
 10
186.8638628942
 20
312.7961170785
 30
0.0
 11
186.8638628942
 21
299.4961170785
 31
0.0
  0
LINE
  5
130
330
51
100
AcDbEntity
  8
DV1_Default
  6
Continuous
 62
     7
 48
25.4
100
AcDbLine
 10
187.9138628942
 20
311.3961170785
 30
0.0
 11
187.9138628942
 21
299.4961170785
 31
0.0
  0
LINE
  5
131
330
51
100
AcDbEntity
  8
DV1_Default
  6
Continuous
 62
     7
 48
25.4
100
AcDbLine
 10
115.1138628942
 20
308.8761170785
 30
0.0
 11
102.1638628942
 21
308.8761170785
 31
0.0
  0
LINE
  5
132
330
51
100
AcDbEntity
  8
DV1_Default
  6
Continuous
 62
     7
 48
25.4
100
AcDbLine
 10
115.1138628942
 20
308.8761170785
 30
0.0
 11
116.1638628942
 21
307.8261170785
 31
0.0
  0
LINE
  5
133
330
51
100
AcDbEntity
  8
DV1_Default
  6
Continuous
 62
     7
 48
25.4
100
AcDbLine
 10
170.3307791456
 20
314.5461170785
 30
0.0
 11
183.3638628942
 21
314.5461170785
 31
0.0
  0
LINE
  5
134
330
51
100
AcDbEntity
  8
DV1_Default
  6
Continuous
 62
     7
 48
25.4
100
AcDbLine
 10
179.8501501516
 20
321.5461170785
 30
0.0
 11
179.8501501516
 21
333.0961170785
 31
0.0
  0
ARC
  5
135
330
51
100
AcDbEntity
  8
DV1_Default
  6
Continuous
 62
     7
 48
25.4
100
AcDbCircle
 10
180.5501501516
 20
333.0961170785
 30
0.0
 40
0.7000000000000001
100
AcDbArc
 50
90.0
 51
180.0
  0
LINE
  5
136
330
51
100
AcDbEntity
  8
DV1_Default
  6
Continuous
 62
     7
 48
25.4
100
AcDbLine
 10
181.6138628942
 20
311.3961170785
 30
0.0
 11
183.3638628942
 21
313.1461170785
 31
0.0
  0
LINE
  5
137
330
51
100
AcDbEntity
  8
DV1_Default
  6
Continuous
 62
     7
 48
25.4
100
AcDbLine
 10
183.3638628942
 20
315.2461170785
 30
0.0
 11
183.3638628942
 21
299.4961170785
 31
0.0
  0
LINE
  5
138
330
51
100
AcDbEntity
  8
DV1_Default
  6
Continuous
 62
     7
 48
25.4
100
AcDbLine
 10
181.6138628942
 20
311.3961170785
 30
0.0
 11
181.6138628942
 21
299.4961170785
 31
0.0
  0
LINE
  5
139
330
51
100
AcDbEntity
  8
DV1_Default
  6
Continuous
 62
     7
 48
25.4
100
AcDbLine
 10
83.2638628942
 20
305.9711170785
 30
0.0
 11
83.2638628942
 21
315.2461170785
 31
0.0
  0
SPLINE
  5
13A
330
51
100
AcDbEntity
  8
DV1_Default
  6
Continuous
 62
     7
 48
25.4
100
AcDbSpline
210
0.0
220
0.0
230
1.0
 70
     8
 71
     3
 72
    13
 73
     9
 74
     0
 42
0.0000000001
 43
0.0000000001
 40
0.0
 40
0.0
 40
0.0
 40
0.0
 40
0.1627066340360193
 40
0.2682033213951359
 40
0.4893723384377393
 40
0.7812547736365061
 40
0.921299197155611
 40
1.0
 40
1.0
 40
1.0
 40
1.0
 10
155.35914179885
 20
382.764708789597
 30
0.0
 10
163.7423531288941
 20
380.2304521800691
 30
0.0
 10
169.9264059652522
 20
378.5501271187097
 30
0.0
 10
187.0833351220461
 20
374.471587973394
 30
0.0
 10
180.4673021103445
 20
346.2584436845017
 30
0.0
 10
179.0376311779278
 20
331.3675173620231
 30
0.0
 10
191.5366485125975
 20
321.5048276078422
 30
0.0
 10
192.1723652128083
 20
315.3164431799054
 30
0.0
 10
192.4959164097411
 20
312.7961170783609
 30
0.0
  0
ARC
  5
13B
330
51
100
AcDbEntity
  8
DV1_Default
  6
Continuous
 62
     7
 48
25.4
100
AcDbCircle
 10
211.0138628942
 20
313.1461170785
 30
0.0
 40
0.35
100
AcDbArc
 50
270.0
 51
360.0
  0
LINE
  5
13C
330
51
100
AcDbEntity
  8
DV1_Default
  6
Continuous
 62
     7
 48
25.4
100
AcDbLine
 10
211.3638628942
 20
313.1461170785
 30
0.0
 11
211.3638628942
 21
335.2661170785
 31
0.0
  0
LINE
  5
13D
330
51
100
AcDbEntity
  8
DV1_Default
  6
Continuous
 62
     7
 48
25.4
100
AcDbLine
 10
211.3638628942
 20
335.2661170785
 30
0.0
 11
220.4638628942
 21
335.2661170785
 31
0.0
  0
LINE
  5
13E
330
51
100
AcDbEntity
  8
DV1_Default
  6
Continuous
 62
     7
 48
25.4
100
AcDbLine
 10
220.4638628942
 20
335.2661170785
 30
0.0
 11
220.9888628942
 21
335.7911170785
 31
0.0
  0
LINE
  5
13F
330
51
100
AcDbEntity
  8
DV1_Default
  6
Continuous
 62
     7
 48
25.4
100
AcDbLine
 10
211.3638628942
 20
330.644005667
 30
0.0
 11
212.0638628942
 21
330.644005667
 31
0.0
  0
LINE
  5
140
330
51
100
AcDbEntity
  8
DV1_Default
  6
Continuous
 62
     7
 48
25.4
100
AcDbLine
 10
212.0638628942
 20
330.644005667
 30
0.0
 11
217.6638628942
 21
327.4108441596
 31
0.0
  0
LINE
  5
141
330
51
100
AcDbEntity
  8
DV1_Default
  6
Continuous
 62
     7
 48
25.4
100
AcDbLine
 10
128.7638628942
 20
245.0772195576
 30
0.0
 11
128.7638628942
 21
233.8772244287
 31
0.0
  0
LINE
  5
142
330
51
100
AcDbEntity
  8
DV1_Default
  6
Continuous
 62
     7
 48
25.4
100
AcDbLine
 10
175.6501501516
 20
283.7461170785
 30
0.0
 11
175.6501501516
 21
278.1461170785
 31
0.0
  0
LINE
  5
143
330
51
100
AcDbEntity
  8
DV1_Default
  6
Continuous
 62
     7
 48
25.4
100
AcDbLine
 10
174.2501501516
 20
278.1461170785
 30
0.0
 11
179.1501501516
 21
278.1461170785
 31
0.0
  0
LINE
  5
144
330
51
100
AcDbEntity
  8
DV1_Default
  6
CENTER2
 62
     7
 48
25.4
100
AcDbLine
 10
177.4001501516
 20
276.7461170785
 30
0.0
 11
177.4001501516
 21
285.9939476664
 31
0.0
  0
ARC
  5
145
330
51
100
AcDbEntity
  8
DV1_Default
  6
Continuous
 62
     7
 48
25.4
100
AcDbCircle
 10
179.1501501516
 20
321.5461170785
 30
0.0
 40
0.7000000000000001
100
AcDbArc
 50
270.0
 51
360.0
  0
LINE
  5
146
330
51
100
AcDbEntity
  8
DV1_Default
  6
Continuous
 62
     7
 48
25.4
100
AcDbLine
 10
179.1501501516
 20
315.2461170785
 30
0.0
 11
179.1501501516
 21
320.1461170785
 31
0.0
  0
LINE
  5
147
330
51
100
AcDbEntity
  8
DV1_Default
  6
Continuous
 62
     7
 48
25.4
100
AcDbLine
 10
176.0001501516
 20
320.1461170785
 30
0.0
 11
176.0001501516
 21
315.2461170785
 31
0.0
  0
LINE
  5
148
330
51
100
AcDbEntity
  8
DV1_Default
  6
Continuous
 62
     7
 48
25.4
100
AcDbLine
 10
178.8001501516
 20
320.1461170785
 30
0.0
 11
178.8001501516
 21
315.2461170785
 31
0.0
  0
LINE
  5
149
330
51
100
AcDbEntity
  8
DV1_Default
  6
Continuous
 62
     7
 48
25.4
100
AcDbLine
 10
175.6501501516
 20
315.9461170785
 30
0.0
 11
179.1501501516
 21
315.9461170785
 31
0.0
  0
LINE
  5
14A
330
51
100
AcDbEntity
  8
DV1_Default
  6
Continuous
 62
     7
 48
25.4
100
AcDbLine
 10
175.6501501516
 20
319.4461170785
 30
0.0
 11
179.1501501516
 21
319.4461170785
 31
0.0
  0
LINE
  5
14B
330
51
100
AcDbEntity
  8
DV1_Default
  6
Continuous
 62
     7
 48
25.4
100
AcDbLine
 10
175.6501501516
 20
315.9461170785
 30
0.0
 11
176.5944660653
 21
315.2461170785
 31
0.0
  0
LINE
  5
14C
330
51
100
AcDbEntity
  8
DV1_Default
  6
Continuous
 62
     7
 48
25.4
100
AcDbLine
 10
178.2058660653
 20
315.2461170785
 30
0.0
 11
179.1501501516
 21
315.9461170785
 31
0.0
  0
LINE
  5
14D
330
51
100
AcDbEntity
  8
DV1_Default
  6
Continuous
 62
     7
 48
25.4
100
AcDbLine
 10
175.6501501516
 20
319.4461170785
 30
0.0
 11
176.2563679343
 21
319.7961170785
 31
0.0
  0
LINE
  5
14E
330
51
100
AcDbEntity
  8
DV1_Default
  6
Continuous
 62
     7
 48
25.4
100
AcDbLine
 10
179.1501501516
 20
319.4461170785
 30
0.0
 11
178.543932369
 21
319.7961170785
 31
0.0
  0
LINE
  5
14F
330
51
100
AcDbEntity
  8
DV1_Default
  6
Continuous
 62
     7
 48
25.4
100
AcDbLine
 10
178.543932369
 20
319.7961170785
 30
0.0
 11
176.2563679343
 21
319.7961170785
 31
0.0
  0
ARC
  5
150
330
51
100
AcDbEntity
  8
DV1_Default
  6
Continuous
 62
     7
 48
25.4
100
AcDbCircle
 10
179.1501501516
 20
321.5461170785
 30
0.0
 40
0.7000000000000001
100
AcDbArc
 50
270.0
 51
360.0
  0
LINE
  5
151
330
51
100
AcDbEntity
  8
DV1_Default
  6
Continuous
 62
     7
 48
25.4
100
AcDbLine
 10
176.0001501516
 20
320.1461170785
 30
0.0
 11
176.0001501516
 21
315.2461170785
 31
0.0
  0
LINE
  5
152
330
51
100
AcDbEntity
  8
DV1_Default
  6
Continuous
 62
     7
 48
25.4
100
AcDbLine
 10
175.6501501516
 20
319.4461170785
 30
0.0
 11
176.2563679343
 21
319.7961170785
 31
0.0
  0
LINE
  5
153
330
51
100
AcDbEntity
  8
DV1_Default
  6
Continuous
 62
     7
 48
25.4
100
AcDbLine
 10
179.1501501516
 20
319.4461170785
 30
0.0
 11
178.543932369
 21
319.7961170785
 31
0.0
  0
ARC
  5
154
330
51
100
AcDbEntity
  8
DV1_Default
  6
Continuous
 62
     7
 48
25.4
100
AcDbCircle
 10
179.1501501516
 20
321.5461170785
 30
0.0
 40
0.7000000000000001
100
AcDbArc
 50
270.0
 51
360.0
  0
LINE
  5
155
330
51
100
AcDbEntity
  8
DV1_Default
  6
Continuous
 62
     7
 48
25.4
100
AcDbLine
 10
176.0001501516
 20
320.1461170785
 30
0.0
 11
176.0001501516
 21
315.2461170785
 31
0.0
  0
LINE
  5
156
330
51
100
AcDbEntity
  8
DV1_Default
  6
Continuous
 62
     7
 48
25.4
100
AcDbLine
 10
175.6501501516
 20
319.4461170785
 30
0.0
 11
176.2563679343
 21
319.7961170785
 31
0.0
  0
LINE
  5
157
330
51
100
AcDbEntity
  8
DV1_Default
  6
Continuous
 62
     7
 48
25.4
100
AcDbLine
 10
179.1501501516
 20
319.4461170785
 30
0.0
 11
178.543932369
 21
319.7961170785
 31
0.0
  0
LINE
  5
158
330
51
100
AcDbEntity
  8
DV1_Default
  6
Continuous
 62
     7
 48
25.4
100
AcDbLine
 10
173.5501501516
 20
320.1461170785
 30
0.0
 11
174.2501501516
 21
320.8461170785
 31
0.0
  0
LINE
  5
159
330
51
100
AcDbEntity
  8
DV1_Default
  6
Continuous
 62
     7
 48
25.4
100
AcDbLine
 10
179.1501501516
 20
320.8461170785
 30
0.0
 11
179.1501501516
 21
320.1461170785
 31
0.0
  0
LINE
  5
15A
330
51
100
AcDbEntity
  8
DV1_Default
  6
Continuous
 62
     7
 48
25.4
100
AcDbLine
 10
178.8001501516
 20
320.1461170785
 30
0.0
 11
178.8001501516
 21
320.8461170785
 31
0.0
  0
LINE
  5
15B
330
51
100
AcDbEntity
  8
DV1_Default
  6
Continuous
 62
     7
 48
25.4
100
AcDbLine
 10
176.0001501516
 20
320.1461170785
 30
0.0
 11
176.0001501516
 21
320.8461170785
 31
0.0
  0
LINE
  5
15C
330
51
100
AcDbEntity
  8
DV1_Default
  6
Continuous
 62
     7
 48
25.4
100
AcDbLine
 10
173.5501501516
 20
320.1461170785
 30
0.0
 11
173.5501501516
 21
314.5461170785
 31
0.0
  0
LINE
  5
15D
330
51
100
AcDbEntity
  8
DV1_Default
  6
Continuous
 62
     7
 48
25.4
100
AcDbLine
 10
175.6501501516
 20
315.2461170785
 30
0.0
 11
175.6501501516
 21
320.8461170785
 31
0.0
  0
LINE
  5
15E
330
51
100
AcDbEntity
  8
DV1_Default
  6
Continuous
 62
     7
 48
25.4
100
AcDbLine
 10
174.2501501516
 20
320.8461170785
 30
0.0
 11
179.1501501516
 21
320.8461170785
 31
0.0
  0
LINE
  5
15F
330
51
100
AcDbEntity
  8
DV1_Default
  6
CENTER2
 62
     7
 48
25.4
100
AcDbLine
 10
177.4001501516
 20
322.2461170785
 30
0.0
 11
177.4001501516
 21
312.9982864905
 31
0.0
  0
LINE
  5
160
330
51
100
AcDbEntity
  8
DV1_Default
  6
Continuous
 62
     7
 48
25.4
100
AcDbLine
 10
155.3591417989
 20
386.9952219931
 30
0.0
 11
155.3591417989
 21
376.4672219931
 31
0.0
  0
LINE
  5
162
330
51
100
AcDbEntity
  8
DV1_Default
  6
HIDDEN2
 62
     7
 48
25.4
100
AcDbLine
 10
217.6638628942
 20
386.9952219931
 30
0.0
 11
217.6638628942
 21
335.1672166316
 31
0.0
  0
LINE
  5
163
330
51
100
AcDbEntity
  8
DV1_Default
  6
CENTER2
 62
     7
 48
25.4
100
AcDbLine
 10
215.0725739391
 20
367.3672219931
 30
0.0
 11
253.013903988
 21
367.3672219931
 31
0.0
  0
LINE
  5
164
330
51
100
AcDbEntity
  8
DV1_Default
  6
CENTER2
 62
     7
 48
25.4
100
AcDbLine
 10
213.9012115003
 20
346.3670645097
 30
0.0
 11
253.2593943876
 21
346.3670645097
 31
0.0
  0
LINE
  5
165
330
51
100
AcDbEntity
  8
DV1_Default
  6
Continuous
 62
     7
 48
25.4
100
AcDbLine
 10
155.3591417989
 20
211.9952219931
 30
0.0
 11
155.3591417989
 21
222.4672219931
 31
0.0
  0
LINE
  5
166
330
51
100
AcDbEntity
  8
DV1_Default
  6
Continuous
 62
     7
 48
25.4
100
AcDbLine
 10
217.6638628942
 20
211.9952219931
 30
0.0
 11
217.6638628942
 21
286.1961170785
 31
0.0
  0
LINE
  5
167
330
51
100
AcDbEntity
  8
DV1_Default
  6
Continuous
 62
     7
 48
25.4
100
AcDbLine
 10
116.1638628942
 20
307.8261170785
 30
0.0
 11
116.1638628942
 21
291.1661170785
 31
0.0
  0
LINE
  5
168
330
51
100
AcDbEntity
  8
DV1_Default
  6
Continuous
 62
     7
 48
25.4
100
AcDbLine
 10
216.2638628942
 20
210.5952219931
 30
0.0
 11
156.7591417989
 21
210.5952219931
 31
0.0
  0
LINE
  5
169
330
51
100
AcDbEntity
  8
DV1_Default
  6
Continuous
 62
     7
 48
25.4
100
AcDbLine
 10
216.2638628942
 20
388.3952219931
 30
0.0
 11
156.7591417989
 21
388.3952219931
 31
0.0
  0
LINE
  5
16A
330
51
100
AcDbEntity
  8
DV1_Default
  6
Continuous
 62
     7
 48
25.4
100
AcDbLine
 10
170.3307791456
 20
314.5461170785
 30
0.0
 11
170.3307791456
 21
315.2461170785
 31
0.0
  0
LINE
  5
16B
330
51
100
AcDbEntity
  8
DV1_Default
  6
Continuous
 62
     7
 48
25.4
100
AcDbLine
 10
170.3307791456
 20
284.4461170785
 30
0.0
 11
170.3307791456
 21
283.7461170785
 31
0.0
  0
LINE
  5
16C
330
51
100
AcDbEntity
  8
DV1_Default
  6
Continuous
 62
     7
 48
25.4
100
AcDbLine
 10
181.2480999338
 20
333.7961173216
 30
0.0
 11
158.8638628942
 21
333.7961095235
 31
0.0
  0
LINE
  5
16D
330
51
100
AcDbEntity
  8
DV1_Default
  6
Continuous
 62
     7
 48
25.4
100
AcDbLine
 10
211.0138628942
 20
265.1961170785
 30
0.0
 11
158.8638628942
 21
265.1961170785
 31
0.0
  0
LINE
  5
16E
330
51
100
AcDbEntity
  8
DV1_Default
  6
Continuous
 62
     7
 48
25.4
100
AcDbLine
 10
205.7638628942
 20
233.5272244287
 30
0.0
 11
158.8638628942
 21
233.5272244287
 31
0.0
  0
LINE
  5
16F
330
51
100
AcDbEntity
  8
DV1_Default
  6
Continuous
 62
     7
 48
25.4
100
AcDbLine
 10
205.7638628942
 20
245.4272195576
 30
0.0
 11
158.8638628942
 21
245.4272195576
 31
0.0
  0
LINE
  5
170
330
51
100
AcDbEntity
  8
DV1_Default
  6
Continuous
 62
     7
 48
25.4
100
AcDbLine
 10
41.6138628942
 20
306.4961170785
 30
0.0
 11
102.1638628942
 21
306.4961170785
 31
0.0
  0
LINE
  5
171
330
51
100
AcDbEntity
  8
DV1_Default
  6
Continuous
 62
     7
 48
25.4
100
AcDbLine
 10
41.6138628942
 20
292.4961170785
 30
0.0
 11
102.1638628942
 21
292.4961170785
 31
0.0
  0
LINE
  5
172
330
51
100
AcDbEntity
  8
DV1_Default
  6
Continuous
 62
     7
 48
25.4
100
AcDbLine
 10
84.6638628942
 20
293.0211170785
 30
0.0
 11
41.0888628942
 21
293.0211170785
 31
0.0
  0
LINE
  5
173
330
51
100
AcDbEntity
  8
DV1_Default
  6
Continuous
 62
     7
 48
25.4
100
AcDbLine
 10
84.6638628942
 20
305.9711170785
 30
0.0
 11
41.0888628942
 21
305.9711170785
 31
0.0
  0
LINE
  5
174
330
51
100
AcDbEntity
  8
DV1_Default
  6
Continuous
 62
     7
 48
25.4
100
AcDbLine
 10
146.2638628942
 20
375.7672219931
 30
0.0
 11
146.9638628942
 21
376.4672219931
 31
0.0
  0
LINE
  5
175
330
51
100
AcDbEntity
  8
DV1_Default
  6
Continuous
 62
     7
 48
25.4
100
AcDbLine
 10
146.2638628942
 20
223.1672219931
 30
0.0
 11
146.9638628942
 21
222.4672219931
 31
0.0
  0
LINE
  5
176
330
51
100
AcDbEntity
  8
DV1_Default
  6
Continuous
 62
     7
 48
25.4
100
AcDbLine
 10
146.2638628942
 20
348.3977670785
 30
0.0
 11
155.3638628942
 21
347.2804275742
 31
0.0
  0
LINE
  5
177
330
51
100
AcDbEntity
  8
DV1_Default
  6
Continuous
 62
     7
 48
25.4
100
AcDbLine
 10
155.3638628942
 20
347.2804275742
 30
0.0
 11
158.8638628942
 21
347.2804275742
 31
0.0
  0
LINE
  5
178
330
51
100
AcDbEntity
  8
DV1_Default
  6
Continuous
 62
     7
 48
25.4
100
AcDbLine
 10
155.3638628942
 20
347.2804275742
 30
0.0
 11
155.3638628942
 21
315.2461170785
 31
0.0
  0
LINE
  5
179
330
51
100
AcDbEntity
  8
DV1_Default
  6
Continuous
 62
     7
 48
25.4
100
AcDbLine
 10
155.3638628942
 20
251.7118065827
 30
0.0
 11
155.3638628942
 21
283.7461170785
 31
0.0
  0
LINE
  5
17A
330
51
100
AcDbEntity
  8
DV1_Default
  6
CENTER2
 62
     7
 48
25.4
100
AcDbLine
 10
143.9211380167
 20
365.9961170785
 30
0.0
 11
174.2942363753
 21
365.9961170785
 31
0.0
  0
LINE
  5
17B
330
51
100
AcDbEntity
  8
DV1_Default
  6
Continuous
 62
     7
 48
25.4
100
AcDbLine
 10
146.2638937315
 20
359.3461170785
 30
0.0
 11
154.6638937315
 21
359.3461170785
 31
0.0
  0
LINE
  5
17C
330
51
100
AcDbEntity
  8
DV1_Default
  6
Continuous
 62
     7
 48
25.4
100
AcDbLine
 10
154.6638937315
 20
359.3461170785
 30
0.0
 11
154.6638937315
 21
372.6461170785
 31
0.0
  0
LINE
  5
17D
330
51
100
AcDbEntity
  8
DV1_Default
  6
Continuous
 62
     7
 48
25.4
100
AcDbLine
 10
154.6638937315
 20
372.6461170785
 30
0.0
 11
146.2638937315
 21
372.6461170785
 31
0.0
  0
LINE
  5
17E
330
51
100
AcDbEntity
  8
DV1_Default
  6
Continuous
 62
     7
 48
25.4
100
AcDbLine
 10
154.6638937315
 20
366.000464985
 30
0.0
 11
154.6638937315
 21
361.800464985
 31
0.0
  0
LINE
  5
17F
330
51
100
AcDbEntity
  8
DV1_Default
  6
Continuous
 62
     7
 48
25.4
100
AcDbLine
 10
154.6638937315
 20
361.800464985
 30
0.0
 11
163.7638937315
 21
361.800464985
 31
0.0
  0
LINE
  5
180
330
51
100
AcDbEntity
  8
DV1_Default
  6
Continuous
 62
     7
 48
25.4
100
AcDbLine
 10
160.2638937315
 20
361.800464985
 30
0.0
 11
172.1638937315
 21
361.800464985
 31
0.0
  0
LINE
  5
181
330
51
100
AcDbEntity
  8
DV1_Default
  6
Continuous
 62
     7
 48
25.4
100
AcDbLine
 10
172.8638937315
 20
362.500464985
 30
0.0
 11
172.8638937315
 21
369.500464985
 31
0.0
  0
LINE
  5
182
330
51
100
AcDbEntity
  8
DV1_Default
  6
Continuous
 62
     7
 48
25.4
100
AcDbLine
 10
172.1638937315
 20
370.200464985
 30
0.0
 11
160.2638937315
 21
370.200464985
 31
0.0
  0
LINE
  5
183
330
51
100
AcDbEntity
  8
DV1_Default
  6
Continuous
 62
     7
 48
25.4
100
AcDbLine
 10
163.7638937315
 20
370.200464985
 30
0.0
 11
154.6638937315
 21
370.200464985
 31
0.0
  0
LINE
  5
184
330
51
100
AcDbEntity
  8
DV1_Default
  6
Continuous
 62
     7
 48
25.4
100
AcDbLine
 10
154.6638937315
 20
362.150464985
 30
0.0
 11
172.5138937315
 21
362.150464985
 31
0.0
  0
LINE
  5
185
330
51
100
AcDbEntity
  8
DV1_Default
  6
Continuous
 62
     7
 48
25.4
100
AcDbLine
 10
154.6638937315
 20
369.850464985
 30
0.0
 11
172.5138937315
 21
369.850464985
 31
0.0
  0
LINE
  5
186
330
51
100
AcDbEntity
  8
DV1_Default
  6
Continuous
 62
     7
 48
25.4
100
AcDbLine
 10
154.6638937315
 20
361.4280271584
 30
0.0
 11
158.8638937315
 21
361.4280271584
 31
0.0
  0
LINE
  5
187
330
51
100
AcDbEntity
  8
DV1_Default
  6
Continuous
 62
     7
 48
25.4
100
AcDbLine
 10
154.6638937315
 20
370.550464985
 30
0.0
 11
158.8638937315
 21
370.550464985
 31
0.0
  0
LINE
  5
188
330
51
100
AcDbEntity
  8
DV1_Default
  6
Continuous
 62
     7
 48
25.4
100
AcDbLine
 10
154.6638937315
 20
359.3461170785
 30
0.0
 11
154.6638937315
 21
359.6961170785
 31
0.0
  0
LINE
  5
189
330
51
100
AcDbEntity
  8
DV1_Default
  6
Continuous
 62
     7
 48
25.4
100
AcDbLine
 10
154.6638937315
 20
359.6961170785
 30
0.0
 11
146.9638937315
 21
359.6961170785
 31
0.0
  0
LINE
  5
18A
330
51
100
AcDbEntity
  8
DV1_Default
  6
Continuous
 62
     7
 48
25.4
100
AcDbLine
 10
146.6138937315
 20
360.0461170785
 30
0.0
 11
146.6138937315
 21
371.9461170785
 31
0.0
  0
LINE
  5
18B
330
51
100
AcDbEntity
  8
DV1_Default
  6
Continuous
 62
     7
 48
25.4
100
AcDbLine
 10
146.9638937315
 20
372.2961170785
 30
0.0
 11
154.6638937315
 21
372.2961170785
 31
0.0
  0
LINE
  5
18C
330
51
100
AcDbEntity
  8
DV1_Default
  6
Continuous
 62
     7
 48
25.4
100
AcDbLine
 10
146.6138937315
 20
360.0461170785
 30
0.0
 11
146.9638937315
 21
359.6961170785
 31
0.0
  0
LINE
  5
18D
330
51
100
AcDbEntity
  8
DV1_Default
  6
Continuous
 62
     7
 48
25.4
100
AcDbLine
 10
146.9638937315
 20
372.2961170785
 30
0.0
 11
146.6138937315
 21
371.9461170785
 31
0.0
  0
LINE
  5
18E
330
51
100
AcDbEntity
  8
DV1_Default
  6
Continuous
 62
     7
 48
25.4
100
AcDbLine
 10
146.9638937315
 20
359.6961170785
 30
0.0
 11
146.9638937315
 21
372.2961170785
 31
0.0
  0
LINE
  5
18F
330
51
100
AcDbEntity
  8
DV1_Default
  6
Continuous
 62
     7
 48
25.4
100
AcDbLine
 10
172.1638937315
 20
370.200464985
 30
0.0
 11
172.8638937315
 21
369.500464985
 31
0.0
  0
LINE
  5
190
330
51
100
AcDbEntity
  8
DV1_Default
  6
Continuous
 62
     7
 48
25.4
100
AcDbLine
 10
172.8638937315
 20
362.500464985
 30
0.0
 11
172.1638937315
 21
361.800464985
 31
0.0
  0
LINE
  5
191
330
51
100
AcDbEntity
  8
DV1_Default
  6
Continuous
 62
     7
 48
25.4
100
AcDbLine
 10
172.1638937315
 20
361.800464985
 30
0.0
 11
172.1638937315
 21
370.200464985
 31
0.0
  0
LINE
  5
192
330
51
100
AcDbEntity
  8
DV1_Default
  6
Continuous
 62
     7
 48
25.4
100
AcDbLine
 10
146.2638628942
 20
283.7461170785
 30
0.0
 11
146.2638628942
 21
245.0772195576
 31
0.0
  0
LINE
  5
193
330
51
100
AcDbEntity
  8
DV1_Default
  6
Continuous
 62
     7
 48
25.4
100
AcDbLine
 10
146.2638628942
 20
375.7672219931
 30
0.0
 11
146.2638628942
 21
315.2461170785
 31
0.0
  0
LINE
  5
194
330
51
100
AcDbEntity
  8
DV1_Default
  6
Continuous
 62
     7
 48
25.4
100
AcDbLine
 10
146.2638628942
 20
250.5944670785
 30
0.0
 11
155.3638628942
 21
251.7118065827
 31
0.0
  0
LINE
  5
195
330
51
100
AcDbEntity
  8
DV1_Default
  6
Continuous
 62
     7
 48
25.4
100
AcDbLine
 10
155.3638628942
 20
251.7118065827
 30
0.0
 11
158.8638628942
 21
251.7118065827
 31
0.0
  0
LINE
  5
196
330
51
100
AcDbEntity
  8
DV1_Default
  6
Continuous
 62
     7
 48
25.4
100
AcDbLine
 10
128.7638628942
 20
233.8772244287
 30
0.0
 11
205.7638628942
 21
233.8772244287
 31
0.0
  0
LINE
  5
197
330
51
100
AcDbEntity
  8
DV1_Default
  6
Continuous
 62
     7
 48
25.4
100
AcDbLine
 10
128.7638628942
 20
245.0772195576
 30
0.0
 11
205.7638628942
 21
245.0772195576
 31
0.0
  0
LINE
  5
198
330
51
100
AcDbEntity
  8
DV1_Default
  6
Continuous
 62
     7
 48
25.4
100
AcDbLine
 10
128.7638628942
 20
244.3772195576
 30
0.0
 11
169.1411935017
 21
244.3772195576
 31
0.0
  0
LINE
  5
199
330
51
100
AcDbEntity
  8
DV1_Default
  6
Continuous
 62
     7
 48
25.4
100
AcDbLine
 10
128.7638628942
 20
234.5772244287
 30
0.0
 11
169.1411935017
 21
234.5772244287
 31
0.0
  0
LINE
  5
19A
330
51
100
AcDbEntity
  8
DV1_Default
  6
Continuous
 62
     7
 48
25.4
100
AcDbLine
 10
146.2638628942
 20
233.8772244287
 30
0.0
 11
146.2638628942
 21
223.1672219931
 31
0.0
  0
LINE
  5
19B
330
51
100
AcDbEntity
  8
DV1_Default
  6
Continuous
 62
     7
 48
25.4
100
AcDbLine
 10
158.8638628942
 20
370.550464985
 30
0.0
 11
158.8638628942
 21
375.7672219931
 31
0.0
  0
LINE
  5
19C
330
51
100
AcDbEntity
  8
DV1_Default
  6
Continuous
 62
     7
 48
25.4
100
AcDbLine
 10
183.3638628942
 20
315.2461170785
 30
0.0
 11
66.8138628942
 21
315.2461170785
 31
0.0
  0
LINE
  5
19D
330
51
100
AcDbEntity
  8
DV1_Default
  6
Continuous
 62
     7
 48
25.4
100
AcDbLine
 10
181.6138628942
 20
311.3961170785
 30
0.0
 11
102.1638628942
 21
311.3961170785
 31
0.0
  0
LINE
  5
19E
330
51
100
AcDbEntity
  8
DV1_Default
  6
Continuous
 62
     7
 48
25.4
100
AcDbLine
 10
181.6138628942
 20
287.5961170785
 30
0.0
 11
102.1638628942
 21
287.5961170785
 31
0.0
  0
LINE
  5
19F
330
51
100
AcDbEntity
  8
DV1_Default
  6
Continuous
 62
     7
 48
25.4
100
AcDbLine
 10
66.8138628942
 20
283.7461170785
 30
0.0
 11
183.3638628942
 21
283.7461170785
 31
0.0
  0
ENDBLK
  5
1A1
330
51
100
AcDbEntity
  8
0
100
AcDbBlockEnd
  0
BLOCK
  5
25D
330
1A2
100
AcDbEntity
  8
0
100
AcDbBlockBegin
  2
SE1
 70
     0
 71
     0
 10
0.0
 20
0.0
 30
0.0
  3
SE1
  1

  0
LINE
  5
1A5
330
1A2
100
AcDbEntity
  8
DV2_Default
  6
Continuous
 62
     7
 48
25.4
100
AcDbLine
 10
447.8161382168
 20
387.7890758434
 30
0.0
 11
447.8161382168
 21
315.8216918201
 31
0.0
  0
LINE
  5
1A6
330
1A2
100
AcDbEntity
  8
DV2_Default
  6
Continuous
 62
     7
 48
25.4
100
AcDbLine
 10
439.0993916502
 20
310.7890758434
 30
0.0
 11
435.6361382168
 21
310.7890758434
 31
0.0
  0
LINE
  5
1A7
330
1A2
100
AcDbEntity
  8
DV2_Default
  6
Continuous
 62
     7
 48
25.4
100
AcDbLine
 10
419.8161382168
 20
315.8600895775
 30
0.0
 11
419.8161382168
 21
387.7890758434
 31
0.0
  0
LINE
  5
1A8
330
1A2
100
AcDbEntity
  8
DV2_Default
  6
Continuous
 62
     7
 48
25.4
100
AcDbLine
 10
419.8161382168
 20
387.7890758434
 30
0.0
 11
447.8161382168
 21
387.7890758434
 31
0.0
  0
LINE
  5
1A9
330
1A2
100
AcDbEntity
  8
DV2_Default
  6
Continuous
 62
     7
 48
25.4
100
AcDbLine
 10
433.8493916502
 20
310.7890758434
 30
0.0
 11
428.5993916502
 21
310.7890758434
 31
0.0
  0
LINE
  5
1AA
330
1A2
100
AcDbEntity
  8
DV2_Default
  6
Continuous
 62
     7
 48
25.4
100
AcDbLine
 10
428.5993916502
 20
310.7890758434
 30
0.0
 11
419.8161382168
 21
315.8600895775
 31
0.0
  0
LINE
  5
1AB
330
1A2
100
AcDbEntity
  8
DV2_Default
  6
Continuous
 62
     7
 48
25.4
100
AcDbLine
 10
433.8493916502
 20
310.7890758434
 30
0.0
 11
439.0993916502
 21
310.7890758434
 31
0.0
  0
LINE
  5
1AC
330
1A2
100
AcDbEntity
  8
DV2_Default
  6
Continuous
 62
     7
 48
25.4
100
AcDbLine
 10
439.0993916502
 20
310.7890758434
 30
0.0
 11
447.8161382168
 21
315.8216918201
 31
0.0
  0
CIRCLE
  5
1AD
330
1A2
100
AcDbEntity
  8
DV2_Default
  6
Continuous
 62
     7
 48
25.4
100
AcDbCircle
 10
433.8161382168
 20
366.8141170184
 30
0.0
 40
6.65
  0
CIRCLE
  5
1AE
330
1A2
100
AcDbEntity
  8
DV2_Default
  6
Continuous
 62
     7
 48
25.4
100
AcDbCircle
 10
433.8161382168
 20
345.8141170184
 30
0.0
 40
6.65
  0
CIRCLE
  5
1AF
330
1A2
100
AcDbEntity
  8
DV2_Default
  6
Continuous
 62
     7
 48
25.4
100
AcDbCircle
 10
433.8161382168
 20
366.8141170184
 30
0.0
 40
6.3
  0
CIRCLE
  5
1B0
330
1A2
100
AcDbEntity
  8
DV2_Default
  6
Continuous
 62
     7
 48
25.4
100
AcDbCircle
 10
433.8161382168
 20
345.8141170184
 30
0.0
 40
6.3
  0
LINE
  5
1B1
330
1A2
100
AcDbEntity
  8
DV2_Default
  6
CENTER2
 62
     7
 48
25.4
100
AcDbLine
 10
424.7161382168
 20
345.8141170184
 30
0.0
 11
442.9161382168
 21
345.8141170184
 31
0.0
  0
LINE
  5
1B2
330
1A2
100
AcDbEntity
  8
DV2_Default
  6
CENTER2
 62
     7
 48
25.4
100
AcDbLine
 10
424.7161382168
 20
366.8141170184
 30
0.0
 11
442.9161382168
 21
366.8141170184
 31
0.0
  0
LINE
  5
1B3
330
1A2
100
AcDbEntity
  8
DV2_Default
  6
Continuous
 62
     7
 48
25.4
100
AcDbLine
 10
433.8161382168
 20
371.0204741225
 30
0.0
 11
430.1788315209
 21
368.9204741225
 31
0.0
  0
LINE
  5
1B4
330
1A2
100
AcDbEntity
  8
DV2_Default
  6
Continuous
 62
     7
 48
25.4
100
AcDbLine
 10
430.1788315209
 20
368.9204741225
 30
0.0
 11
430.1788315209
 21
364.7204741225
 31
0.0
  0
LINE
  5
1B5
330
1A2
100
AcDbEntity
  8
DV2_Default
  6
Continuous
 62
     7
 48
25.4
100
AcDbLine
 10
430.1788315209
 20
364.7204741225
 30
0.0
 11
433.8161382168
 21
362.6204741225
 31
0.0
  0
LINE
  5
1B6
330
1A2
100
AcDbEntity
  8
DV2_Default
  6
Continuous
 62
     7
 48
25.4
100
AcDbLine
 10
433.8161382168
 20
362.6204741225
 30
0.0
 11
437.4534449127
 21
364.7204741225
 31
0.0
  0
LINE
  5
1B7
330
1A2
100
AcDbEntity
  8
DV2_Default
  6
Continuous
 62
     7
 48
25.4
100
AcDbLine
 10
437.4534449127
 20
364.7204741225
 30
0.0
 11
437.4534449127
 21
368.9204741225
 31
0.0
  0
LINE
  5
1B8
330
1A2
100
AcDbEntity
  8
DV2_Default
  6
Continuous
 62
     7
 48
25.4
100
AcDbLine
 10
437.4534449127
 20
368.9204741225
 30
0.0
 11
433.8161382168
 21
371.0204741225
 31
0.0
  0
LINE
  5
1B9
330
1A2
100
AcDbEntity
  8
DV2_Default
  6
Continuous
 62
     7
 48
25.4
100
AcDbLine
 10
433.8161382168
 20
341.6032218989
 30
0.0
 11
430.1788315209
 21
343.7032218989
 31
0.0
  0
LINE
  5
1BA
330
1A2
100
AcDbEntity
  8
DV2_Default
  6
Continuous
 62
     7
 48
25.4
100
AcDbLine
 10
430.1788315209
 20
343.7032218989
 30
0.0
 11
430.1788315209
 21
347.9032218989
 31
0.0
  0
LINE
  5
1BB
330
1A2
100
AcDbEntity
  8
DV2_Default
  6
Continuous
 62
     7
 48
25.4
100
AcDbLine
 10
430.1788315209
 20
347.9032218989
 30
0.0
 11
433.8161382168
 21
350.0032218989
 31
0.0
  0
LINE
  5
1BC
330
1A2
100
AcDbEntity
  8
DV2_Default
  6
Continuous
 62
     7
 48
25.4
100
AcDbLine
 10
433.8161382168
 20
350.0032218989
 30
0.0
 11
437.4534449127
 21
347.9032218989
 31
0.0
  0
LINE
  5
1BD
330
1A2
100
AcDbEntity
  8
DV2_Default
  6
Continuous
 62
     7
 48
25.4
100
AcDbLine
 10
437.4534449127
 20
347.9032218989
 30
0.0
 11
437.4534449127
 21
343.7032218989
 31
0.0
  0
LINE
  5
1BE
330
1A2
100
AcDbEntity
  8
DV2_Default
  6
Continuous
 62
     7
 48
25.4
100
AcDbLine
 10
437.4534449127
 20
343.7032218989
 30
0.0
 11
433.8161382168
 21
341.6032218989
 31
0.0
  0
CIRCLE
  5
1BF
330
1A2
100
AcDbEntity
  8
DV2_Default
  6
Continuous
 62
     7
 48
25.4
100
AcDbCircle
 10
491.7620285359
 20
314.5556303591
 30
0.0
 40
8.749999999999998
  0
CIRCLE
  5
1C0
330
1A2
100
AcDbEntity
  8
DV2_Default
  6
Continuous
 62
     7
 48
25.4
100
AcDbCircle
 10
491.7620285359
 20
314.5556303591
 30
0.0
 40
5.95
  0
CIRCLE
  5
1C1
330
1A2
100
AcDbEntity
  8
DV2_Default
  6
Continuous
 62
     7
 48
25.4
100
AcDbCircle
 10
476.2354740202
 20
341.4484116468
 30
0.0
 40
8.749999999999998
  0
CIRCLE
  5
1C2
330
1A2
100
AcDbEntity
  8
DV2_Default
  6
Continuous
 62
     7
 48
25.4
100
AcDbCircle
 10
476.2354740202
 20
341.4484116468
 30
0.0
 40
5.95
  0
CIRCLE
  5
1C3
330
1A2
100
AcDbEntity
  8
DV2_Default
  6
Continuous
 62
     7
 48
25.4
100
AcDbCircle
 10
391.3968024135
 20
341.4484116468
 30
0.0
 40
8.749999999999998
  0
CIRCLE
  5
1C4
330
1A2
100
AcDbEntity
  8
DV2_Default
  6
Continuous
 62
     7
 48
25.4
100
AcDbCircle
 10
391.3968024135
 20
341.4484116468
 30
0.0
 40
5.95
  0
CIRCLE
  5
1C5
330
1A2
100
AcDbEntity
  8
DV2_Default
  6
Continuous
 62
     7
 48
25.4
100
AcDbCircle
 10
375.8702478978
 20
314.5556303591
 30
0.0
 40
8.749999999999998
  0
CIRCLE
  5
1C6
330
1A2
100
AcDbEntity
  8
DV2_Default
  6
Continuous
 62
     7
 48
25.4
100
AcDbCircle
 10
375.8702478978
 20
314.5556303591
 30
0.0
 40
5.95
  0
ARC
  5
1C7
330
1A2
100
AcDbEntity
  8
DV2_Default
  6
CENTER2
 62
     7
 48
25.4
100
AcDbCircle
 10
433.8161382168
 20
299.0290758434
 30
0.0
 40
59.98999999999999
100
AcDbArc
 50
126.6355468977
 51
143.3644531023
  0
ARC
  5
1C8
330
1A2
100
AcDbEntity
  8
DV2_Default
  6
CENTER2
 62
     7
 48
25.4
100
AcDbCircle
 10
433.8161382168
 20
299.0290758434
 30
0.0
 40
59.98999999999999
100
AcDbArc
 50
6.6355468977
 51
23.3644531023
  0
ARC
  5
1C9
330
1A2
100
AcDbEntity
  8
DV2_Default
  6
CENTER2
 62
     7
 48
25.4
100
AcDbCircle
 10
433.8161382168
 20
299.0290758434
 30
0.0
 40
59.98999999999999
100
AcDbArc
 50
36.6355468977
 51
53.3644531023
  0
ARC
  5
1CA
330
1A2
100
AcDbEntity
  8
DV2_Default
  6
CENTER2
 62
     7
 48
25.4
100
AcDbCircle
 10
433.8161382168
 20
299.0290758434
 30
0.0
 40
59.98999999999999
100
AcDbArc
 50
156.6355468977
 51
173.3644531023
  0
LINE
  5
1CB
330
1A2
100
AcDbEntity
  8
DV2_Default
  6
CENTER2
 62
     7
 48
25.4
100
AcDbLine
 10
470.0482896848
 20
335.2612273114
 30
0.0
 11
482.4226583556
 21
347.6355959822
 31
0.0
  0
LINE
  5
1CC
330
1A2
100
AcDbEntity
  8
DV2_Default
  6
CENTER2
 62
     7
 48
25.4
100
AcDbLine
 10
384.3220988778
 20
312.2909637145
 30
0.0
 11
367.4183969177
 21
316.8202970038
 31
0.0
  0
LINE
  5
1CD
330
1A2
100
AcDbEntity
  8
DV2_Default
  6
CENTER2
 62
     7
 48
25.4
100
AcDbLine
 10
397.5839867488
 20
335.2612273114
 30
0.0
 11
385.2096180781
 21
347.6355959822
 31
0.0
  0
LINE
  5
1CE
330
1A2
100
AcDbEntity
  8
DV2_Default
  6
CENTER2
 62
     7
 48
25.4
100
AcDbLine
 10
483.3101775559
 20
312.2909637145
 30
0.0
 11
500.2138795159
 21
316.8202970038
 31
0.0
  0
LINE
  5
1CF
330
1A2
100
AcDbEntity
  8
DV2_Default
  6
Continuous
 62
     7
 48
25.4
100
AcDbLine
 10
431.9961382168
 20
310.7890758434
 30
0.0
 11
428.5993916502
 21
310.7890758434
 31
0.0
  0
ARC
  5
1D0
330
1A2
100
AcDbEntity
  8
DV2_Default
  6
Continuous
 62
     7
 48
25.4
100
AcDbCircle
 10
433.8161382168
 20
299.0290758434
 30
0.0
 40
11.9
100
AcDbArc
 50
98.79741071
 51
81.20258929
  0
LINE
  5
1D1
330
1A2
100
AcDbEntity
  8
DV2_Default
  6
Continuous
 62
     7
 48
25.4
100
AcDbLine
 10
448.5161382168
 20
387.6746645127
 30
0.0
 11
458.4581714279
 21
384.4443021018
 31
0.0
  0
LINE
  5
1D2
330
1A2
100
AcDbEntity
  8
DV2_Default
  6
Continuous
 62
     7
 48
25.4
100
AcDbLine
 10
419.1161382168
 20
387.6746645127
 30
0.0
 11
409.1741050057
 21
384.4443021018
 31
0.0
  0
LINE
  5
1D3
330
1A2
100
AcDbEntity
  8
DV2_Default
  6
Continuous
 62
     7
 48
25.4
100
AcDbLine
 10
419.1161382168
 20
387.6746645127
 30
0.0
 11
419.8161382168
 21
387.6746645127
 31
0.0
  0
LINE
  5
1D4
330
1A2
100
AcDbEntity
  8
DV2_Default
  6
Continuous
 62
     7
 48
25.4
100
AcDbLine
 10
448.5161382168
 20
387.6746645127
 30
0.0
 11
447.8161382168
 21
387.6746645127
 31
0.0
  0
ARC
  5
1D5
330
1A2
100
AcDbEntity
  8
DV2_Default
  6
Continuous
 62
     7
 48
25.4
100
AcDbCircle
 10
433.8161382168
 20
299.0290758434
 30
0.0
 40
88.89999999999998
100
AcDbArc
 50
219.517818872
 51
320.482181128
  0
LINE
  5
1D6
330
1A2
100
AcDbEntity
  8
DV2_Default
  6
Continuous
 62
     7
 48
25.4
100
AcDbLine
 10
507.7854699379
 20
249.8565392476
 30
0.0
 11
503.2354699379
 21
241.9757080732
 31
0.0
  0
LINE
  5
1D7
330
1A2
100
AcDbEntity
  8
DV2_Default
  6
Continuous
 62
     7
 48
25.4
100
AcDbLine
 10
517.9354699379
 20
267.4368549444
 30
0.0
 11
510.5854699379
 21
254.7062815088
 31
0.0
  0
LINE
  5
1D8
330
1A2
100
AcDbEntity
  8
DV2_Default
  6
Continuous
 62
     7
 48
25.4
100
AcDbLine
 10
517.9354699379
 20
267.4368549444
 30
0.0
 11
520.1089106321
 21
277.6620894759
 31
0.0
  0
LINE
  5
1D9
330
1A2
100
AcDbEntity
  8
DV2_Default
  6
Continuous
 62
     7
 48
25.4
100
AcDbLine
 10
503.2354699379
 20
241.9757080732
 30
0.0
 11
495.4668774211
 21
234.9808359525
 31
0.0
  0
LINE
  5
1DA
330
1A2
100
AcDbEntity
  8
DV2_Default
  6
Continuous
 62
     7
 48
25.4
100
AcDbLine
 10
510.5854699379
 20
254.7062815088
 30
0.0
 11
507.7854699379
 21
249.8565392476
 31
0.0
  0
LINE
  5
1DB
330
1A2
100
AcDbEntity
  8
DV2_Default
  6
Continuous
 62
     7
 48
25.4
100
AcDbLine
 10
462.3191362392
 20
276.1065392476
 30
0.0
 11
457.7691362392
 21
268.2257080732
 31
0.0
  0
LINE
  5
1DC
330
1A2
100
AcDbEntity
  8
DV2_Default
  6
Continuous
 62
     7
 48
25.4
100
AcDbLine
 10
467.9191362392
 20
285.80602377
 30
0.0
 11
472.4691362392
 21
293.6868549444
 31
0.0
  0
ARC
  5
1DD
330
1A2
100
AcDbEntity
  8
DV2_Default
  6
Continuous
 62
     7
 48
25.4
100
AcDbCircle
 10
467.0413392934
 20
279.846497058
 30
0.0
 40
5.599999999999994
100
AcDbArc
 50
60.0
 51
240.0
  0
ARC
  5
1DE
330
1A2
100
AcDbEntity
  8
DV2_Default
  6
Continuous
 62
     7
 48
25.4
100
AcDbCircle
 10
468.9523760265
 20
278.7431594857
 30
0.0
 40
6.506942592812056
100
AcDbArc
 50
90.6138174333
 51
209.3861825667
  0
LINE
  5
1DF
330
1A2
100
AcDbEntity
  8
DV2_Default
  6
Continuous
 62
     7
 48
25.4
100
AcDbLine
 10
468.9901075792
 20
295.6954730778
 30
0.0
 11
454.2901075792
 21
270.2343262065
 31
0.0
  0
LINE
  5
1E0
330
1A2
100
AcDbEntity
  8
DV2_Default
  6
Continuous
 62
     7
 48
25.4
100
AcDbLine
 10
467.1864192058
 20
296.7368330457
 30
0.0
 11
452.4864192058
 21
271.2756861744
 31
0.0
  0
LINE
  5
1E1
330
1A2
100
AcDbEntity
  8
DV2_Default
  6
Continuous
 62
     7
 48
25.4
100
AcDbLine
 10
503.2354699379
 20
241.9757080732
 30
0.0
 11
452.4864192058
 21
271.2756861744
 31
0.0
  0
LINE
  5
1E2
330
1A2
100
AcDbEntity
  8
DV2_Default
  6
Continuous
 62
     7
 48
25.4
100
AcDbLine
 10
517.9354699379
 20
267.4368549444
 30
0.0
 11
467.1864192058
 21
296.7368330457
 31
0.0
  0
LINE
  5
1E3
330
1A2
100
AcDbEntity
  8
DV2_Default
  6
Continuous
 62
     7
 48
25.4
100
AcDbLine
 10
498.6922031981
 20
255.1065392476
 30
0.0
 11
504.2922031981
 21
264.80602377
 31
0.0
  0
LINE
  5
1E4
330
1A2
100
AcDbEntity
  8
DV2_Default
  6
Continuous
 62
     7
 48
25.4
100
AcDbLine
 10
469.9002251524
 20
282.237370422
 30
0.0
 11
466.4002251524
 21
276.1751925955
 31
0.0
  0
LINE
  5
1E5
330
1A2
100
AcDbEntity
  8
DV2_Default
  6
Continuous
 62
     7
 48
25.4
100
AcDbLine
 10
466.4002251524
 20
276.1751925955
 30
0.0
 11
467.1688785004
 21
273.3065392476
 31
0.0
  0
LINE
  5
1E6
330
1A2
100
AcDbEntity
  8
DV2_Default
  6
Continuous
 62
     7
 48
25.4
100
AcDbLine
 10
472.7688785004
 20
283.00602377
 30
0.0
 11
469.9002251524
 21
282.237370422
 31
0.0
  0
LINE
  5
1E7
330
1A2
100
AcDbEntity
  8
DV2_Default
  6
Continuous
 62
     7
 48
25.4
100
AcDbLine
 10
462.3191362392
 20
276.1065392476
 30
0.0
 11
507.7854699379
 21
249.8565392476
 31
0.0
  0
LINE
  5
1E8
330
1A2
100
AcDbEntity
  8
DV2_Default
  6
Continuous
 62
     7
 48
25.4
100
AcDbLine
 10
467.9191362392
 20
285.80602377
 30
0.0
 11
513.3854699379
 21
259.55602377
 31
0.0
  0
LINE
  5
1E9
330
1A2
100
AcDbEntity
  8
DV2_Default
  6
CENTER2
 62
     7
 48
25.4
100
AcDbLine
 10
496.650327604
 20
271.1699069759
 30
0.0
 11
489.4474569083
 21
258.6941689706
 31
0.0
  0
LINE
  5
1EA
330
1A2
100
AcDbEntity
  8
DV2_Default
  6
CENTER2
 62
     7
 48
25.4
100
AcDbLine
 10
478.3025027745
 20
281.3905421628
 30
0.0
 11
471.2609234289
 21
269.1941689706
 31
0.0
  0
CIRCLE
  5
1EB
330
1A2
100
AcDbEntity
  8
DV2_Default
  6
Continuous
 62
     7
 48
25.4
100
AcDbCircle
 10
474.7817131017
 20
275.2923555667
 30
0.0
 40
4.2
  0
CIRCLE
  5
1EC
330
1A2
100
AcDbEntity
  8
DV2_Default
  6
Continuous
 62
     7
 48
25.4
100
AcDbCircle
 10
493.005154241
 20
264.8562815088
 30
0.0
 40
4.2
  0
CIRCLE
  5
1ED
330
1A2
100
AcDbEntity
  8
DV2_Default
  6
Continuous
 62
     7
 48
25.4
100
AcDbCircle
 10
474.7817131017
 20
275.2923555667
 30
0.0
 40
3.85
  0
CIRCLE
  5
1EE
330
1A2
100
AcDbEntity
  8
DV2_Default
  6
Continuous
 62
     7
 48
25.4
100
AcDbCircle
 10
493.005154241
 20
264.8562815088
 30
0.0
 40
3.85
  0
LINE
  5
1EF
330
1A2
100
AcDbEntity
  8
DV2_Default
  6
Continuous
 62
     7
 48
25.4
100
AcDbLine
 10
357.0468064958
 20
254.7062815088
 30
0.0
 11
349.6968064958
 21
267.4368549444
 31
0.0
  0
LINE
  5
1F0
330
1A2
100
AcDbEntity
  8
DV2_Default
  6
Continuous
 62
     7
 48
25.4
100
AcDbLine
 10
364.3968064958
 20
241.9757080732
 30
0.0
 11
357.0468064958
 21
254.7062815088
 31
0.0
  0
LINE
  5
1F1
330
1A2
100
AcDbEntity
  8
DV2_Default
  6
Continuous
 62
     7
 48
25.4
100
AcDbLine
 10
364.3968064958
 20
241.9757080732
 30
0.0
 11
372.1653990126
 21
234.9808359525
 31
0.0
  0
LINE
  5
1F2
330
1A2
100
AcDbEntity
  8
DV2_Default
  6
Continuous
 62
     7
 48
25.4
100
AcDbLine
 10
349.6968064958
 20
267.4368549444
 30
0.0
 11
347.5233658015
 21
277.6620894759
 31
0.0
  0
LINE
  5
1F3
330
1A2
100
AcDbEntity
  8
DV2_Default
  6
Continuous
 62
     7
 48
25.4
100
AcDbLine
 10
399.7131401945
 20
285.80602377
 30
0.0
 11
395.1631401945
 21
293.6868549444
 31
0.0
  0
LINE
  5
1F4
330
1A2
100
AcDbEntity
  8
DV2_Default
  6
Continuous
 62
     7
 48
25.4
100
AcDbLine
 10
405.3131401945
 20
276.1065392476
 30
0.0
 11
409.8631401945
 21
268.2257080732
 31
0.0
  0
ARC
  5
1F5
330
1A2
100
AcDbEntity
  8
DV2_Default
  6
Continuous
 62
     7
 48
25.4
100
AcDbCircle
 10
400.5909371403
 20
279.846497058
 30
0.0
 40
5.599999999999994
100
AcDbArc
 50
300.0
 51
120.0
  0
ARC
  5
1F6
330
1A2
100
AcDbEntity
  8
DV2_Default
  6
Continuous
 62
     7
 48
25.4
100
AcDbCircle
 10
398.6799004072
 20
278.7431594857
 30
0.0
 40
6.506942592812056
100
AcDbArc
 50
330.6138174333
 51
89.3861825667
  0
LINE
  5
1F7
330
1A2
100
AcDbEntity
  8
DV2_Default
  6
Continuous
 62
     7
 48
25.4
100
AcDbLine
 10
413.3421688545
 20
270.2343262065
 30
0.0
 11
398.6421688545
 21
295.6954730778
 31
0.0
  0
LINE
  5
1F8
330
1A2
100
AcDbEntity
  8
DV2_Default
  6
Continuous
 62
     7
 48
25.4
100
AcDbLine
 10
415.1458572279
 20
271.2756861744
 30
0.0
 11
400.4458572279
 21
296.7368330457
 31
0.0
  0
LINE
  5
1F9
330
1A2
100
AcDbEntity
  8
DV2_Default
  6
Continuous
 62
     7
 48
25.4
100
AcDbLine
 10
349.6968064958
 20
267.4368549444
 30
0.0
 11
400.4458572279
 21
296.7368330457
 31
0.0
  0
LINE
  5
1FA
330
1A2
100
AcDbEntity
  8
DV2_Default
  6
Continuous
 62
     7
 48
25.4
100
AcDbLine
 10
364.3968064958
 20
241.9757080732
 30
0.0
 11
415.1458572279
 21
271.2756861744
 31
0.0
  0
LINE
  5
1FB
330
1A2
100
AcDbEntity
  8
DV2_Default
  6
Continuous
 62
     7
 48
25.4
100
AcDbLine
 10
363.3400732356
 20
264.80602377
 30
0.0
 11
368.9400732356
 21
255.1065392476
 31
0.0
  0
LINE
  5
1FC
330
1A2
100
AcDbEntity
  8
DV2_Default
  6
Continuous
 62
     7
 48
25.4
100
AcDbLine
 10
401.2320512813
 20
276.1751925955
 30
0.0
 11
397.7320512813
 21
282.237370422
 31
0.0
  0
LINE
  5
1FD
330
1A2
100
AcDbEntity
  8
DV2_Default
  6
Continuous
 62
     7
 48
25.4
100
AcDbLine
 10
397.7320512813
 20
282.237370422
 30
0.0
 11
394.8633979333
 21
283.00602377
 31
0.0
  0
LINE
  5
1FE
330
1A2
100
AcDbEntity
  8
DV2_Default
  6
Continuous
 62
     7
 48
25.4
100
AcDbLine
 10
400.4633979333
 20
273.3065392476
 30
0.0
 11
401.2320512813
 21
276.1751925955
 31
0.0
  0
LINE
  5
1FF
330
1A2
100
AcDbEntity
  8
DV2_Default
  6
Continuous
 62
     7
 48
25.4
100
AcDbLine
 10
399.7131401945
 20
285.80602377
 30
0.0
 11
354.2468064958
 21
259.55602377
 31
0.0
  0
LINE
  5
200
330
1A2
100
AcDbEntity
  8
DV2_Default
  6
Continuous
 62
     7
 48
25.4
100
AcDbLine
 10
405.3131401945
 20
276.1065392476
 30
0.0
 11
359.8468064958
 21
249.8565392476
 31
0.0
  0
LINE
  5
201
330
1A2
100
AcDbEntity
  8
DV2_Default
  6
CENTER2
 62
     7
 48
25.4
100
AcDbLine
 10
378.2722955556
 20
258.5426560417
 30
0.0
 11
371.06942486
 21
271.018394047
 31
0.0
  0
LINE
  5
202
330
1A2
100
AcDbEntity
  8
DV2_Default
  6
CENTER2
 62
     7
 48
25.4
100
AcDbLine
 10
396.2975376851
 20
269.3220208548
 30
0.0
 11
389.2559583394
 21
281.518394047
 31
0.0
  0
CIRCLE
  5
203
330
1A2
100
AcDbEntity
  8
DV2_Default
  6
Continuous
 62
     7
 48
25.4
100
AcDbCircle
 10
392.7767480123
 20
275.4202074509
 30
0.0
 40
4.2
  0
CIRCLE
  5
204
330
1A2
100
AcDbEntity
  8
DV2_Default
  6
Continuous
 62
     7
 48
25.4
100
AcDbCircle
 10
374.6271221926
 20
264.8562815088
 30
0.0
 40
4.2
  0
CIRCLE
  5
205
330
1A2
100
AcDbEntity
  8
DV2_Default
  6
Continuous
 62
     7
 48
25.4
100
AcDbCircle
 10
392.7767480123
 20
275.4202074509
 30
0.0
 40
3.85
  0
CIRCLE
  5
206
330
1A2
100
AcDbEntity
  8
DV2_Default
  6
Continuous
 62
     7
 48
25.4
100
AcDbCircle
 10
374.6271221926
 20
264.8562815088
 30
0.0
 40
3.85
  0
ARC
  5
207
330
1A2
100
AcDbEntity
  8
DV2_Default
  6
Continuous
 62
     7
 48
25.4
100
AcDbCircle
 10
433.8161382168
 20
299.0290758434
 30
0.0
 40
62.99999999999999
100
AcDbArc
 50
292.6629548265
 51
316.5066011784
  0
ARC
  5
208
330
1A2
100
AcDbEntity
  8
DV2_Default
  6
Continuous
 62
     7
 48
25.4
100
AcDbCircle
 10
433.8161382168
 20
299.0290758434
 30
0.0
 40
62.99999999999999
100
AcDbArc
 50
142.6629548265
 51
157.3370451735
  0
ARC
  5
209
330
1A2
100
AcDbEntity
  8
DV2_Default
  6
Continuous
 62
     7
 48
25.4
100
AcDbCircle
 10
433.8161382168
 20
299.0290758434
 30
0.0
 40
52.5
100
AcDbArc
 50
226.2602047083
 51
250.3804521127
  0
ARC
  5
20A
330
1A2
100
AcDbEntity
  8
DV2_Default
  6
Continuous
 62
     7
 48
25.4
100
AcDbCircle
 10
433.8161382168
 20
299.0290758434
 30
0.0
 40
52.5
100
AcDbArc
 50
139.6195478873
 51
160.3804521127
  0
ARC
  5
20B
330
1A2
100
AcDbEntity
  8
DV2_Default
  6
Continuous
 62
     7
 48
25.4
100
AcDbCircle
 10
433.8161382168
 20
299.0290758434
 30
0.0
 40
62.99999999999999
100
AcDbArc
 50
102.8395884069
 51
127.3370451735
  0
ARC
  5
20C
330
1A2
100
AcDbEntity
  8
DV2_Default
  6
Continuous
 62
     7
 48
25.4
100
AcDbCircle
 10
433.8161382168
 20
299.0290758434
 30
0.0
 40
52.5
100
AcDbArc
 50
105.4660099534
 51
130.3804521127
  0
ARC
  5
20D
330
1A2
100
AcDbEntity
  8
DV2_Default
  6
Continuous
 62
     7
 48
25.4
100
AcDbCircle
 10
433.8161382168
 20
299.0290758434
 30
0.0
 40
43.05
100
AcDbArc
 50
349.9660582971
 51
71.0221105973
  0
ARC
  5
20E
330
1A2
100
AcDbEntity
  8
DV2_Default
  6
Continuous
 62
     7
 48
25.4
100
AcDbCircle
 10
433.8161382168
 20
299.0290758434
 30
0.0
 40
62.99999999999999
100
AcDbArc
 50
52.6629548265
 51
77.1604115931
  0
ARC
  5
20F
330
1A2
100
AcDbEntity
  8
DV2_Default
  6
Continuous
 62
     7
 48
25.4
100
AcDbCircle
 10
433.8161382168
 20
299.0290758434
 30
0.0
 40
52.5
100
AcDbArc
 50
49.6195478873
 51
74.5339900466
  0
ARC
  5
210
330
1A2
100
AcDbEntity
  8
DV2_Default
  6
Continuous
 62
     7
 48
25.4
100
AcDbCircle
 10
433.8161382168
 20
299.0290758434
 30
0.0
 40
62.99999999999999
100
AcDbArc
 50
22.6629548265
 51
37.3370451735
  0
ARC
  5
211
330
1A2
100
AcDbEntity
  8
DV2_Default
  6
Continuous
 62
     7
 48
25.4
100
AcDbCircle
 10
433.8161382168
 20
299.0290758434
 30
0.0
 40
52.5
100
AcDbArc
 50
19.6195478873
 51
40.3804521127
  0
ARC
  5
212
330
1A2
100
AcDbEntity
  8
DV2_Default
  6
Continuous
 62
     7
 48
25.4
100
AcDbCircle
 10
433.8161382168
 20
299.0290758434
 30
0.0
 40
43.05
100
AcDbArc
 50
108.9778894027
 51
190.0339417029
  0
ARC
  5
213
330
1A2
100
AcDbEntity
  8
DV2_Default
  6
Continuous
 62
     7
 48
25.4
100
AcDbCircle
 10
433.8161382168
 20
299.0290758434
 30
0.0
 40
52.5
100
AcDbArc
 50
169.6195478873
 51
193.7397952917
  0
ARC
  5
214
330
1A2
100
AcDbEntity
  8
DV2_Default
  6
Continuous
 62
     7
 48
25.4
100
AcDbCircle
 10
433.8161382168
 20
299.0290758434
 30
0.0
 40
43.05
100
AcDbArc
 50
229.9660582971
 51
310.0339417029
  0
ARC
  5
215
330
1A2
100
AcDbEntity
  8
DV2_Default
  6
Continuous
 62
     7
 48
25.4
100
AcDbCircle
 10
433.8161382168
 20
299.0290758434
 30
0.0
 40
52.5
100
AcDbArc
 50
346.2602047083
 51
10.3804521127
  0
ARC
  5
216
330
1A2
100
AcDbEntity
  8
DV2_Default
  6
Continuous
 62
     7
 48
25.4
100
AcDbCircle
 10
433.8161382168
 20
299.0290758434
 30
0.0
 40
62.99999999999999
100
AcDbArc
 50
172.6629548265
 51
196.5066011784
  0
ARC
  5
217
330
1A2
100
AcDbEntity
  8
DV2_Default
  6
Continuous
 62
     7
 48
25.4
100
AcDbCircle
 10
433.8161382168
 20
299.0290758434
 30
0.0
 40
62.99999999999999
100
AcDbArc
 50
343.4933988216
 51
7.3370451735
  0
CIRCLE
  5
218
330
1A2
100
AcDbEntity
  8
DV2_Default
  6
Continuous
 62
     7
 48
25.4
100
AcDbCircle
 10
433.8161382168
 20
260.1790758434
 30
0.0
 40
3.325
  0
CIRCLE
  5
219
330
1A2
100
AcDbEntity
  8
DV2_Default
  6
Continuous
 62
     7
 48
25.4
100
AcDbCircle
 10
433.8161382168
 20
260.1790758434
 30
0.0
 40
2.975
  0
LINE
  5
21A
330
1A2
100
AcDbEntity
  8
DV2_Default
  6
Continuous
 62
     7
 48
25.4
100
AcDbLine
 10
433.8161382168
 20
261.2290758434
 30
0.0
 11
432.9068115429
 21
260.7040758434
 31
0.0
  0
LINE
  5
21B
330
1A2
100
AcDbEntity
  8
DV2_Default
  6
Continuous
 62
     7
 48
25.4
100
AcDbLine
 10
432.9068115429
 20
260.7040758434
 30
0.0
 11
432.9068115429
 21
259.6540758434
 31
0.0
  0
LINE
  5
21C
330
1A2
100
AcDbEntity
  8
DV2_Default
  6
Continuous
 62
     7
 48
25.4
100
AcDbLine
 10
432.9068115429
 20
259.6540758434
 30
0.0
 11
433.8161382168
 21
259.1290758434
 31
0.0
  0
LINE
  5
21D
330
1A2
100
AcDbEntity
  8
DV2_Default
  6
Continuous
 62
     7
 48
25.4
100
AcDbLine
 10
433.8161382168
 20
259.1290758434
 30
0.0
 11
434.7254648908
 21
259.6540758434
 31
0.0
  0
LINE
  5
21E
330
1A2
100
AcDbEntity
  8
DV2_Default
  6
Continuous
 62
     7
 48
25.4
100
AcDbLine
 10
434.7254648908
 20
259.6540758434
 30
0.0
 11
434.7254648908
 21
260.7040758434
 31
0.0
  0
LINE
  5
21F
330
1A2
100
AcDbEntity
  8
DV2_Default
  6
Continuous
 62
     7
 48
25.4
100
AcDbLine
 10
434.7254648908
 20
260.7040758434
 30
0.0
 11
433.8161382168
 21
261.2290758434
 31
0.0
  0
ARC
  5
220
330
1A2
100
AcDbEntity
  8
DV2_Default
  6
CENTER2
 62
     7
 48
25.4
100
AcDbCircle
 10
433.8161382168
 20
299.0290758434
 30
0.0
 40
38.84999999999999
100
AcDbArc
 50
265.0948092982
 51
274.9051907018
  0
LINE
  5
221
330
1A2
100
AcDbEntity
  8
DV2_Default
  6
CENTER2
 62
     7
 48
25.4
100
AcDbLine
 10
433.8161382168
 20
265.5905778367
 30
0.0
 11
433.8161382168
 21
255.0905778367
 31
0.0
  0
CIRCLE
  5
222
330
1A2
100
AcDbEntity
  8
DV2_Default
  6
Continuous
 62
     7
 48
25.4
100
AcDbCircle
 10
467.4612251539
 20
318.4540758434
 30
0.0
 40
3.325
  0
CIRCLE
  5
223
330
1A2
100
AcDbEntity
  8
DV2_Default
  6
Continuous
 62
     7
 48
25.4
100
AcDbCircle
 10
467.4612251539
 20
318.4540758434
 30
0.0
 40
2.975
  0
LINE
  5
224
330
1A2
100
AcDbEntity
  8
DV2_Default
  6
Continuous
 62
     7
 48
25.4
100
AcDbLine
 10
466.5518984799
 20
317.9290758434
 30
0.0
 11
467.4612251539
 21
317.4040758434
 31
0.0
  0
LINE
  5
225
330
1A2
100
AcDbEntity
  8
DV2_Default
  6
Continuous
 62
     7
 48
25.4
100
AcDbLine
 10
467.4612251539
 20
317.4040758434
 30
0.0
 11
468.3705518278
 21
317.9290758434
 31
0.0
  0
LINE
  5
226
330
1A2
100
AcDbEntity
  8
DV2_Default
  6
Continuous
 62
     7
 48
25.4
100
AcDbLine
 10
468.3705518278
 20
317.9290758434
 30
0.0
 11
468.3705518278
 21
318.9790758434
 31
0.0
  0
LINE
  5
227
330
1A2
100
AcDbEntity
  8
DV2_Default
  6
Continuous
 62
     7
 48
25.4
100
AcDbLine
 10
468.3705518278
 20
318.9790758434
 30
0.0
 11
467.4612251539
 21
319.5040758434
 31
0.0
  0
LINE
  5
228
330
1A2
100
AcDbEntity
  8
DV2_Default
  6
Continuous
 62
     7
 48
25.4
100
AcDbLine
 10
467.4612251539
 20
319.5040758434
 30
0.0
 11
466.5518984799
 21
318.9790758434
 31
0.0
  0
LINE
  5
229
330
1A2
100
AcDbEntity
  8
DV2_Default
  6
Continuous
 62
     7
 48
25.4
100
AcDbLine
 10
466.5518984799
 20
318.9790758434
 30
0.0
 11
466.5518984799
 21
317.9290758434
 31
0.0
  0
ARC
  5
22A
330
1A2
100
AcDbEntity
  8
DV2_Default
  6
CENTER2
 62
     7
 48
25.4
100
AcDbCircle
 10
433.8161382168
 20
299.0290758434
 30
0.0
 40
38.84999999999999
100
AcDbArc
 50
25.0948092982
 51
34.9051907018
  0
LINE
  5
22B
330
1A2
100
AcDbEntity
  8
DV2_Default
  6
CENTER2
 62
     7
 48
25.4
100
AcDbLine
 10
462.774726955
 20
315.7483248468
 30
0.0
 11
471.8679936948
 21
320.9983248468
 31
0.0
  0
CIRCLE
  5
22C
330
1A2
100
AcDbEntity
  8
DV2_Default
  6
Continuous
 62
     7
 48
25.4
100
AcDbCircle
 10
400.1710512798
 20
318.4540758434
 30
0.0
 40
3.325
  0
CIRCLE
  5
22D
330
1A2
100
AcDbEntity
  8
DV2_Default
  6
Continuous
 62
     7
 48
25.4
100
AcDbCircle
 10
400.1710512798
 20
318.4540758434
 30
0.0
 40
2.975
  0
LINE
  5
22E
330
1A2
100
AcDbEntity
  8
DV2_Default
  6
Continuous
 62
     7
 48
25.4
100
AcDbLine
 10
401.0803779538
 20
317.9290758434
 30
0.0
 11
401.0803779538
 21
318.9790758434
 31
0.0
  0
LINE
  5
22F
330
1A2
100
AcDbEntity
  8
DV2_Default
  6
Continuous
 62
     7
 48
25.4
100
AcDbLine
 10
401.0803779538
 20
318.9790758434
 30
0.0
 11
400.1710512798
 21
319.5040758434
 31
0.0
  0
LINE
  5
230
330
1A2
100
AcDbEntity
  8
DV2_Default
  6
Continuous
 62
     7
 48
25.4
100
AcDbLine
 10
400.1710512798
 20
319.5040758434
 30
0.0
 11
399.2617246058
 21
318.9790758434
 31
0.0
  0
LINE
  5
231
330
1A2
100
AcDbEntity
  8
DV2_Default
  6
Continuous
 62
     7
 48
25.4
100
AcDbLine
 10
399.2617246058
 20
318.9790758434
 30
0.0
 11
399.2617246058
 21
317.9290758434
 31
0.0
  0
LINE
  5
232
330
1A2
100
AcDbEntity
  8
DV2_Default
  6
Continuous
 62
     7
 48
25.4
100
AcDbLine
 10
399.2617246058
 20
317.9290758434
 30
0.0
 11
400.1710512798
 21
317.4040758434
 31
0.0
  0
LINE
  5
233
330
1A2
100
AcDbEntity
  8
DV2_Default
  6
Continuous
 62
     7
 48
25.4
100
AcDbLine
 10
400.1710512798
 20
317.4040758434
 30
0.0
 11
401.0803779538
 21
317.9290758434
 31
0.0
  0
ARC
  5
234
330
1A2
100
AcDbEntity
  8
DV2_Default
  6
CENTER2
 62
     7
 48
25.4
100
AcDbCircle
 10
433.8161382168
 20
299.0290758434
 30
0.0
 40
38.84999999999999
100
AcDbArc
 50
145.0948092982
 51
154.9051907018
  0
LINE
  5
235
330
1A2
100
AcDbEntity
  8
DV2_Default
  6
CENTER2
 62
     7
 48
25.4
100
AcDbLine
 10
404.8575494786
 20
315.7483248468
 30
0.0
 11
395.7642827389
 21
320.9983248468
 31
0.0
  0
CIRCLE
  5
236
330
1A2
100
AcDbEntity
  8
DV2_Default
  6
Continuous
 62
     7
 48
25.4
100
AcDbCircle
 10
418.2895837011
 20
241.0831855243
 30
0.0
 40
8.749999999999998
  0
CIRCLE
  5
237
330
1A2
100
AcDbEntity
  8
DV2_Default
  6
Continuous
 62
     7
 48
25.4
100
AcDbCircle
 10
418.2895837011
 20
241.0831855243
 30
0.0
 40
5.95
  0
CIRCLE
  5
238
330
1A2
100
AcDbEntity
  8
DV2_Default
  6
Continuous
 62
     7
 48
25.4
100
AcDbCircle
 10
449.3426927325
 20
241.0831855243
 30
0.0
 40
8.749999999999998
  0
CIRCLE
  5
239
330
1A2
100
AcDbEntity
  8
DV2_Default
  6
Continuous
 62
     7
 48
25.4
100
AcDbCircle
 10
449.3426927325
 20
241.0831855243
 30
0.0
 40
5.95
  0
ARC
  5
23A
330
1A2
100
AcDbEntity
  8
DV2_Default
  6
CENTER2
 62
     7
 48
25.4
100
AcDbCircle
 10
433.8161382168
 20
299.0290758434
 30
0.0
 40
59.98999999999999
100
AcDbArc
 50
246.6355468977
 51
263.3644531023
  0
ARC
  5
23B
330
1A2
100
AcDbEntity
  8
DV2_Default
  6
CENTER2
 62
     7
 48
25.4
100
AcDbCircle
 10
433.8161382168
 20
299.0290758434
 30
0.0
 40
59.98999999999999
100
AcDbArc
 50
276.6355468977
 51
293.3644531023
  0
LINE
  5
23C
330
1A2
100
AcDbEntity
  8
DV2_Default
  6
CENTER2
 62
     7
 48
25.4
100
AcDbLine
 10
447.0780260879
 20
249.5350365044
 30
0.0
 11
451.6073593772
 21
232.6313345443
 31
0.0
  0
LINE
  5
23D
330
1A2
100
AcDbEntity
  8
DV2_Default
  6
CENTER2
 62
     7
 48
25.4
100
AcDbLine
 10
420.5542503458
 20
249.5350365044
 30
0.0
 11
416.0249170565
 21
232.6313345443
 31
0.0
  0
LINE
  5
23E
330
1A2
100
AcDbEntity
  8
DV2_Default
  6
Continuous
 62
     7
 48
25.4
100
AcDbLine
 10
432.9068115429
 20
259.6540758434
 30
0.0
 11
433.8161382168
 21
259.1290758434
 31
0.0
  0
LINE
  5
23F
330
1A2
100
AcDbEntity
  8
DV2_Default
  6
Continuous
 62
     7
 48
25.4
100
AcDbLine
 10
433.8161382168
 20
259.1290758434
 30
0.0
 11
434.7254648908
 21
259.6540758434
 31
0.0
  0
LINE
  5
240
330
1A2
100
AcDbEntity
  8
DV2_Default
  6
Continuous
 62
     7
 48
25.4
100
AcDbLine
 10
434.7254648908
 20
259.6540758434
 30
0.0
 11
434.7254648908
 21
260.7040758434
 31
0.0
  0
ARC
  5
241
330
1A2
100
AcDbEntity
  8
DV2_Default
  6
Continuous
 62
     7
 48
25.4
100
AcDbCircle
 10
433.8161382168
 20
299.0290758434
 30
0.0
 40
62.99999999999999
100
AcDbArc
 50
223.4933988216
 51
247.3370451735
  0
ARC
  5
242
330
1A2
100
AcDbEntity
  8
DV2_Default
  6
Continuous
 62
     7
 48
25.4
100
AcDbCircle
 10
433.8161382168
 20
299.0290758434
 30
0.0
 40
62.99999999999999
100
AcDbArc
 50
262.6629548265
 51
277.3370451735
  0
ARC
  5
243
330
1A2
100
AcDbEntity
  8
DV2_Default
  6
Continuous
 62
     7
 48
25.4
100
AcDbCircle
 10
433.8161382168
 20
299.0290758434
 30
0.0
 40
52.5
100
AcDbArc
 50
289.6195478873
 51
313.7397952917
  0
ARC
  5
244
330
1A2
100
AcDbEntity
  8
DV2_Default
  6
Continuous
 62
     7
 48
25.4
100
AcDbCircle
 10
433.8161382168
 20
299.0290758434
 30
0.0
 40
52.5
100
AcDbArc
 50
259.6195478873
 51
280.3804521127
  0
LINE
  5
245
330
1A2
100
AcDbEntity
  8
DV2_Default
  6
Continuous
 62
     7
 48
25.4
100
AcDbLine
 10
400.1710512798
 20
319.5040758434
 30
0.0
 11
399.2617246058
 21
318.9790758434
 31
0.0
  0
LINE
  5
246
330
1A2
100
AcDbEntity
  8
DV2_Default
  6
Continuous
 62
     7
 48
25.4
100
AcDbLine
 10
399.2617246058
 20
318.9790758434
 30
0.0
 11
399.2617246058
 21
317.9290758434
 31
0.0
  0
LINE
  5
247
330
1A2
100
AcDbEntity
  8
DV2_Default
  6
Continuous
 62
     7
 48
25.4
100
AcDbLine
 10
399.2617246058
 20
317.9290758434
 30
0.0
 11
400.1710512798
 21
317.4040758434
 31
0.0
  0
LINE
  5
248
330
1A2
100
AcDbEntity
  8
DV2_Default
  6
Continuous
 62
     7
 48
25.4
100
AcDbLine
 10
468.3705518278
 20
317.9290758434
 30
0.0
 11
468.3705518278
 21
318.9790758434
 31
0.0
  0
LINE
  5
249
330
1A2
100
AcDbEntity
  8
DV2_Default
  6
Continuous
 62
     7
 48
25.4
100
AcDbLine
 10
468.3705518278
 20
318.9790758434
 30
0.0
 11
467.4612251539
 21
319.5040758434
 31
0.0
  0
LINE
  5
24A
330
1A2
100
AcDbEntity
  8
DV2_Default
  6
Continuous
 62
     7
 48
25.4
100
AcDbLine
 10
467.4612251539
 20
319.5040758434
 30
0.0
 11
466.5518984799
 21
318.9790758434
 31
0.0
  0
CIRCLE
  5
24B
330
1A2
100
AcDbEntity
  8
DV2_Default
  6
CENTER2
 62
     7
 48
25.4
100
AcDbCircle
 10
500.3161382168
 20
299.0290758434
 30
0.0
 40
2.8
  0
CIRCLE
  5
24C
330
1A2
100
AcDbEntity
  8
DV2_Default
  6
CENTER2
 62
     7
 48
25.4
100
AcDbCircle
 10
500.3161382168
 20
299.0290758434
 30
0.0
 40
2.45
  0
LINE
  5
24D
330
1A2
100
AcDbEntity
  8
DV2_Default
  6
CENTER2
 62
     7
 48
25.4
100
AcDbLine
 10
495.8011382168
 20
299.0290758434
 30
0.0
 11
505.1486620642
 21
299.0290758434
 31
0.0
  0
ARC
  5
24E
330
1A2
100
AcDbEntity
  8
DV2_Default
  6
Continuous
 62
     7
 48
25.4
100
AcDbCircle
 10
433.8161382168
 20
299.0290758434
 30
0.0
 40
88.89999999999998
100
AcDbArc
 50
339.517818872
 51
80.9393251688
  0
ARC
  5
24F
330
1A2
100
AcDbEntity
  8
DV2_Default
  6
Continuous
 62
     7
 48
25.4
100
AcDbCircle
 10
433.8161382168
 20
299.0290758434
 30
0.0
 40
88.89999999999998
100
AcDbArc
 50
99.0606748312
 51
200.482181128
  0
CIRCLE
  5
250
330
1A2
100
AcDbEntity
  8
DV2_Default
  6
CENTER2
 62
     7
 48
25.4
100
AcDbCircle
 10
400.5661382168
 20
356.6197651951
 30
0.0
 40
2.8
  0
CIRCLE
  5
251
330
1A2
100
AcDbEntity
  8
DV2_Default
  6
CENTER2
 62
     7
 48
25.4
100
AcDbCircle
 10
400.5661382168
 20
356.6197651951
 30
0.0
 40
2.45
  0
LINE
  5
252
330
1A2
100
AcDbEntity
  8
DV2_Default
  6
CENTER2
 62
     7
 48
25.4
100
AcDbLine
 10
402.8236382168
 20
352.709660497
 30
0.0
 11
398.1498762931
 21
360.8048536113
 31
0.0
  0
CIRCLE
  5
253
330
1A2
100
AcDbEntity
  8
DV2_Default
  6
CENTER2
 62
     7
 48
25.4
100
AcDbCircle
 10
400.5661382168
 20
241.4383864918
 30
0.0
 40
2.45
  0
CIRCLE
  5
254
330
1A2
100
AcDbEntity
  8
DV2_Default
  6
CENTER2
 62
     7
 48
25.4
100
AcDbCircle
 10
400.5661382168
 20
241.4383864918
 30
0.0
 40
2.8
  0
LINE
  5
255
330
1A2
100
AcDbEntity
  8
DV2_Default
  6
CENTER2
 62
     7
 48
25.4
100
AcDbLine
 10
402.8236382168
 20
245.3484911898
 30
0.0
 11
398.1498762931
 21
237.2532980755
 31
0.0
  0
LINE
  5
256
330
1A2
100
AcDbEntity
  8
DV2_Default
  6
CENTER2
 62
     7
 48
25.4
100
AcDbLine
 10
334.9217503912
 20
299.0290758434
 30
0.0
 11
530.9217503912
 21
299.0290758434
 31
0.0
  0
LINE
  5
257
330
1A2
100
AcDbEntity
  8
DV2_Default
  6
CENTER2
 62
     7
 48
25.4
100
AcDbLine
 10
433.8161382168
 20
393.6382930404
 30
0.0
 11
433.8161382168
 21
197.6382930404
 31
0.0
  0
LINE
  5
258
330
1A2
100
AcDbEntity
  8
DV2_Default
  6
CENTER2
 62
     7
 48
25.4
100
AcDbLine
 10
433.8161382168
 20
299.0290758434
 30
0.0
 11
355.0078264725
 21
253.5290758434
 31
0.0
  0
LINE
  5
259
330
1A2
100
AcDbEntity
  8
DV2_Default
  6
CENTER2
 62
     7
 48
25.4
100
AcDbLine
 10
433.8161382168
 20
299.0290758434
 30
0.0
 11
512.6244499612
 21
253.5290758434
 31
0.0
  0
ARC
  5
25A
330
1A2
100
AcDbEntity
  8
DV2_Default
  6
CENTER2
 62
     7
 48
25.4
100
AcDbCircle
 10
433.8161382168
 20
299.0290758434
 30
0.0
 40
66.49999999999999
100
AcDbArc
 50
117.5873678849
 51
122.4126321151
  0
ARC
  5
25B
330
1A2
100
AcDbEntity
  8
DV2_Default
  6
CENTER2
 62
     7
 48
25.4
100
AcDbCircle
 10
433.8161382168
 20
299.0290758434
 30
0.0
 40
66.49999999999999
100
AcDbArc
 50
357.5873678849
 51
2.4126321151
  0
ARC
  5
25C
330
1A2
100
AcDbEntity
  8
DV2_Default
  6
CENTER2
 62
     7
 48
25.4
100
AcDbCircle
 10
433.8161382168
 20
299.0290758434
 30
0.0
 40
66.49999999999999
100
AcDbArc
 50
237.5873678849
 51
242.4126321151
  0
ENDBLK
  5
25E
330
1A2
100
AcDbEntity
  8
0
100
AcDbBlockEnd
  0
BLOCK
  5
2F9
330
25F
100
AcDbEntity
  8
0
100
AcDbBlockBegin
  2
SE2
 70
     0
 71
     0
 10
0.0
 20
0.0
 30
0.0
  3
SE2
  1

  0
LINE
  5
262
330
25F
100
AcDbEntity
  8
DV3_Default
  6
Continuous
 62
     7
 48
25.4
100
AcDbLine
 10
409.1640712211
 20
142.1551138146
 30
0.0
 11
269.1640712211
 21
142.1551138146
 31
0.0
  0
LINE
  5
263
330
25F
100
AcDbEntity
  8
DV3_Default
  6
Continuous
 62
     7
 48
25.4
100
AcDbLine
 10
409.1640712211
 20
35.0551138146
 30
0.0
 11
269.1640712211
 21
35.0551138146
 31
0.0
  0
LINE
  5
264
330
25F
100
AcDbEntity
  8
DV3_Default
  6
Continuous
 62
     7
 48
25.4
100
AcDbLine
 10
269.1640712211
 20
35.0551138146
 30
0.0
 11
269.1640712211
 21
142.1551138146
 31
0.0
  0
TEXT
  5
265
330
25F
100
AcDbEntity
  8
DV3_Default
  6
Continuous
 62
     7
 48
25.4
100
AcDbText
 10
267.524046754
 20
29.4344818897
 30
0.0
 40
3.5
  1
0
  7
SEACAD_arial_ttf
 11
267.524046754
 21
32.9344818897
 31
0.0
100
AcDbText
 73
     3
  0
TEXT
  5
266
330
25F
100
AcDbEntity
  8
DV3_Default
  6
Continuous
 62
     7
 48
25.4
100
AcDbText
 10
296.986261973
 20
29.6642959865
 30
0.0
 40
3.5
  1
1000
  7
SEACAD_arial_ttf
 11
296.986261973
 21
33.1642959865
 31
0.0
100
AcDbText
 73
     3
  0
TEXT
  5
267
330
25F
100
AcDbEntity
  8
DV3_Default
  6
Continuous
 62
     7
 48
25.4
100
AcDbText
 10
330.3567409338
 20
29.3291536015
 30
0.0
 40
3.5
  1
2000
  7
SEACAD_arial_ttf
 11
330.3567409338
 21
32.8291536015
 31
0.0
100
AcDbText
 73
     3
  0
TEXT
  5
268
330
25F
100
AcDbEntity
  8
DV3_Default
  6
Continuous
 62
     7
 48
25.4
100
AcDbText
 10
363.4015989282
 20
29.2469093388
 30
0.0
 40
3.5
  1
3000
  7
SEACAD_arial_ttf
 11
363.4015989282
 21
32.7469093388
 31
0.0
100
AcDbText
 73
     3
  0
TEXT
  5
269
330
25F
100
AcDbEntity
  8
DV3_Default
  6
Continuous
 62
     7
 48
25.4
100
AcDbText
 10
396.7816445604
 20
29.4765254212
 30
0.0
 40
3.5
  1
4000
  7
SEACAD_arial_ttf
 11
396.7816445604
 21
32.9765254212
 31
0.0
100
AcDbText
 73
     3
  0
TEXT
  5
26A
330
25F
100
AcDbEntity
  8
DV3_Default
  6
Continuous
 62
     7
 48
25.4
100
AcDbText
 10
407.9403066467
 20
29.5174331735
 30
0.0
 40
3.5
  1
4010
  7
SEACAD_arial_ttf
 11
407.9403066467
 21
33.0174331735
 31
0.0
100
AcDbText
 73
     3
  0
TEXT
  5
26B
330
25F
100
AcDbEntity
  8
DV3_Default
  6
Continuous
 62
     7
 48
25.4
100
AcDbText
 10
261.9465875574
 20
50.7905847376
 30
0.0
 40
3.5
  1
20
  7
SEACAD_arial_ttf
 11
261.9465875574
 21
54.2905847376
 31
0.0
100
AcDbText
 73
     3
  0
TEXT
  5
26C
330
25F
100
AcDbEntity
  8
DV3_Default
  6
Continuous
 62
     7
 48
25.4
100
AcDbText
 10
261.8602783854
 20
69.0718717179
 30
0.0
 40
3.5
  1
40
  7
SEACAD_arial_ttf
 11
261.8602783854
 21
72.5718717179
 31
0.0
100
AcDbText
 73
     3
  0
TEXT
  5
26D
330
25F
100
AcDbEntity
  8
DV3_Default
  6
Continuous
 62
     7
 48
25.4
100
AcDbText
 10
261.8096011444
 20
86.4279172307
 30
0.0
 40
3.5
  1
60
  7
SEACAD_arial_ttf
 11
261.8096011444
 21
89.9279172307
 31
0.0
100
AcDbText
 73
     3
  0
TEXT
  5
26E
330
25F
100
AcDbEntity
  8
DV3_Default
  6
Continuous
 62
     7
 48
25.4
100
AcDbText
 10
259.2689980154
 20
122.7274353342
 30
0.0
 40
3.5
  1
100
  7
SEACAD_arial_ttf
 11
259.2689980154
 21
126.2274353342
 31
0.0
100
AcDbText
 73
     3
  0
TEXT
  5
26F
330
25F
100
AcDbEntity
  8
DV3_Default
  6
Continuous
 62
     7
 48
25.4
100
AcDbText
 10
261.894012727
 20
105.1183106675
 30
0.0
 40
3.5
  1
80
  7
SEACAD_arial_ttf
 11
261.894012727
 21
108.6183106675
 31
0.0
100
AcDbText
 73
     3
  0
TEXT
  5
270
330
25F
100
AcDbEntity
  8
DV3_Default
  6
Continuous
 62
     7
 48
25.4
100
AcDbText
 10
259.288860866
 20
130.7302535686
 30
0.0
 40
3.5
  1
108
  7
SEACAD_arial_ttf
 11
259.288860866
 21
134.2302535686
 31
0.0
100
AcDbText
 73
     3
  0
TEXT
  5
271
330
25F
100
AcDbEntity
  8
DV3_Default
  6
Continuous
 62
     7
 48
25.4
100
AcDbText
 10
303.9021625854
 20
132.8698116885
 30
0.0
 40
4.2
  1
Input Force
  7
SEACAD_arial_ttf
 11
303.9021625854
 21
137.0698116885
 31
0.0
100
AcDbText
 73
     3
  0
TEXT
  5
272
330
25F
100
AcDbEntity
  8
DV3_Default
  6
Continuous
 62
     7
 48
25.4
100
AcDbText
 10
314.1055329446
 20
125.6463872866
 30
0.0
 40
3.5
  1
29kN
  7
SEACAD_arial_ttf
 11
314.1055329446
 21
129.1463872866
 31
0.0
100
AcDbText
 73
     3
  0
TEXT
  5
273
330
25F
100
AcDbEntity
  8
DV3_Default
  6
Continuous
 62
     7
 48
25.4
100
AcDbText
 10
314.2852167979
 20
113.437322342
 30
0.0
 40
3.5
  1
26kN
  7
SEACAD_arial_ttf
 11
314.2852167979
 21
116.937322342
 31
0.0
100
AcDbText
 73
     3
  0
TEXT
  5
274
330
25F
100
AcDbEntity
  8
DV3_Default
  6
Continuous
 62
     7
 48
25.4
100
AcDbText
 10
314.5398686158
 20
94.2882277346
 30
0.0
 40
3.5
  1
20kN
  7
SEACAD_arial_ttf
 11
314.5398686158
 21
97.7882277346
 31
0.0
100
AcDbText
 73
     3
  0
TEXT
  5
275
330
25F
100
AcDbEntity
  8
DV3_Default
  6
Continuous
 62
     7
 48
25.4
100
AcDbText
 10
314.5094838432
 20
104.0063336152
 30
0.0
 40
3.5
  1
23kN
  7
SEACAD_arial_ttf
 11
314.5094838432
 21
107.5063336152
 31
0.0
100
AcDbText
 73
     3
  0
TEXT
  5
276
330
25F
100
AcDbEntity
  8
DV3_Default
  6
Continuous
 62
     7
 48
25.4
100
AcDbText
 10
314.2554688737
 20
84.7444798304
 30
0.0
 40
3.5
  1
17kN
  7
SEACAD_arial_ttf
 11
314.2554688737
 21
88.2444798304
 31
0.0
100
AcDbText
 73
     3
  0
TEXT
  5
277
330
25F
100
AcDbEntity
  8
DV3_Default
  6
Continuous
 62
     7
 48
25.4
100
AcDbText
 10
313.8211332025
 20
74.5574571383
 30
0.0
 40
3.5
  1
14kN
  7
SEACAD_arial_ttf
 11
313.8211332025
 21
78.0574571383
 31
0.0
100
AcDbText
 73
     3
  0
TEXT
  5
278
330
25F
100
AcDbEntity
  8
DV3_Default
  6
Continuous
 62
     7
 48
25.4
100
AcDbText
 10
313.9258490912
 20
64.5962883171
 30
0.0
 40
3.5
  1
11kN
  7
SEACAD_arial_ttf
 11
313.9258490912
 21
68.0962883171
 31
0.0
100
AcDbText
 73
     3
  0
TEXT
  5
279
330
25F
100
AcDbEntity
  8
DV3_Default
  6
Continuous
 62
     7
 48
25.4
100
AcDbText
 10
314.1805009091
 20
54.1529060247
 30
0.0
 40
3.5
  1
6kN
  7
SEACAD_arial_ttf
 11
314.1805009091
 21
57.6529060247
 31
0.0
100
AcDbText
 73
     3
  0
TEXT
  5
27A
330
25F
100
AcDbEntity
  8
DV3_Default
  6
Continuous
 62
     7
 48
25.4
100
AcDbText
 10
326.6797662986
 20
16.1087616362
 30
0.0
 40
4.2
  1
Speed in min-
  7
SEACAD_arial_ttf
 11
326.6797662986
 21
20.3087616362
 31
0.0
100
AcDbText
 73
     3
  0
TEXT
  5
27B
330
25F
100
AcDbEntity
  8
DV3_Default
  6
Continuous
 62
     7
 48
25.4
100
AcDbText
 10
363.1102010812
 20
16.1087616362
 30
0.0
 40
3.2102777778
  1
¹
  7
SEACAD_arial_ttf
 11
363.1102010812
 21
19.319039414
 31
0.0
100
AcDbText
 73
     3
  0
TEXT
  5
27C
330
25F
100
AcDbEntity
  8
DV3_Default
  6
Continuous
 62
     7
 48
25.4
100
AcDbText
 10
221.9951816662
 20
92.2386358044
 30
0.0
 40
4.2
  1
Total Gripping 
  7
SEACAD_arial_ttf
 11
221.9951816662
 21
96.4386358044
 31
0.0
100
AcDbText
 73
     3
  0
TEXT
  5
27D
330
25F
100
AcDbEntity
  8
DV3_Default
  6
Continuous
 62
     7
 48
25.4
100
AcDbText
 10
221.9951816662
 20
85.664722761
 30
0.0
 40
4.2
  1
Force in kN
  7
SEACAD_arial_ttf
 11
221.9951816662
 21
89.864722761
 31
0.0
100
AcDbText
 73
     3
  0
TEXT
  5
27E
330
25F
100
AcDbEntity
  8
DV3_Default
  6
Continuous
 62
     7
 48
25.4
100
AcDbText
 10
284.2229791098
 20
162.3413631372
 30
0.0
 40
4.2
  1
Gripping Characteristic Graph For N-10A8
  7
SEACAD_arial_ttf
 11
284.2229791098
 21
166.5413631372
 31
0.0
100
AcDbText
 73
     3
  0
LWPOLYLINE
  5
27F
330
25F
100
AcDbEntity
  8
DV3_Default
  6
Continuous
 62
     7
 48
25.4
100
AcDbPolyline
 90
        2
 70
     0
 43
0.0
 10
414.1952010908
 20
40.9489514556
 10
378.8226290183
 20
55.1209401274
  0
HATCH
  5
280
330
25F
100
AcDbEntity
  8
DV3_Default
  6
Continuous
 62
     7
 48
25.4
100
AcDbHatch
 10
0.0
 20
0.0
 30
0.0
210
0.0
220
0.0
230
1.0
  2
SOLID
 70
     1
 71
     0
 91
        1
 92
        1
 93
        3
 72
     1
 10
382.9816949478736
 20
54.20870610664708
 11
378.8226290182981
 21
55.12094012740513
 72
     1
 10
378.8226290182981
 20
55.12094012740513
 11
382.461020890894
 21
52.90912980628517
 72
     1
 10
382.461020890894
 20
52.90912980628517
 11
382.9816949478736
 21
54.20870610664708
 97
        0
 75
     0
 76
     1
 98
        0
  0
LWPOLYLINE
  5
281
330
25F
100
AcDbEntity
  8
DV3_Default
  6
Continuous
 62
     7
 48
25.4
370
    20
100
AcDbPolyline
 90
        4
 70
     1
 43
0.0
 10
382.9816949479
 20
54.2087061066
 10
378.8226290183
 20
55.1209401274
 10
382.4610208909
 20
52.9091298063
 10
382.9816949479
 20
54.2087061066
  0
LINE
  5
282
330
25F
100
AcDbEntity
  8
DV3_Default
  6
Continuous
 62
     7
 48
25.4
100
AcDbLine
 10
414.1952010908
 20
40.9489514556
 30
0.0
 11
467.15172283
 21
40.9489514556
 31
0.0
  0
TEXT
  5
283
330
25F
100
AcDbEntity
  8
DV3_Default
  6
Continuous
 62
     7
 48
25.4
100
AcDbText
 10
414.1952010908
 20
41.9989514556
 30
0.0
 40
4.2
  1
Gripping Force Limit
  7
SEACAD_arial_ttf
 11
414.1952010908
 21
46.1989514556
 31
0.0
100
AcDbText
 73
     3
  0
TEXT
  5
284
330
25F
100
AcDbEntity
  8
DV3_Default
  6
Continuous
 62
     7
 48
25.4
100
AcDbText
 10
18.7112085224
 20
143.8239277536
 30
0.0
 40
3.5
  1
SPINDLE NOSE SIZE
  7
SEACAD_arial_ttf
 11
18.7112085224
 21
147.3239277536
 31
0.0
100
AcDbText
 73
     3
  0
TEXT
  5
285
330
25F
100
AcDbEntity
  8
DV3_Default
  6
Continuous
 62
     7
 48
25.4
100
AcDbText
 10
124.3963988365
 20
143.8239277536
 30
0.0
 40
3.5
  1
A2-8
  7
SEACAD_arial_ttf
 11
124.3963988365
 21
147.3239277536
 31
0.0
100
AcDbText
 73
     3
  0
TEXT
  5
286
330
25F
100
AcDbEntity
  8
DV3_Default
  6
Continuous
 62
     7
 48
25.4
100
AcDbText
 10
18.8318459055
 20
76.5029642462
 30
0.0
 40
3.5
  1
TOTAL GRIPPING FORCE AT MAX. SPEED
  7
SEACAD_arial_ttf
 11
18.8318459055
 21
80.0029642462
 31
0.0
100
AcDbText
 73
     3
  0
TEXT
  5
287
330
25F
100
AcDbEntity
  8
DV3_Default
  6
Continuous
 62
     7
 48
25.4
100
AcDbText
 10
124.0922856791
 20
18.1611813804
 30
0.0
 40
3.5
  1
SB10B1
  7
SEACAD_arial_ttf
 11
124.0922856791
 21
21.6611813804
 31
0.0
100
AcDbText
 73
     3
  0
LINE
  5
288
330
25F
100
AcDbEntity
  8
DV3_Default
  6
Continuous
 62
     7
 48
25.4
100
AcDbLine
 10
16.8559924501
 20
23.7816124101
 30
0.0
 11
184.8559924501
 21
23.7816124101
 31
0.0
  0
LINE
  5
289
330
25F
100
AcDbEntity
  8
DV3_Default
  6
Continuous
 62
     7
 48
25.4
100
AcDbLine
 10
184.8559924501
 20
149.7816124101
 30
0.0
 11
16.8559924501
 21
149.7816124101
 31
0.0
  0
LINE
  5
28A
330
25F
100
AcDbEntity
  8
DV3_Default
  6
Continuous
 62
     7
 48
25.4
100
AcDbLine
 10
16.8559924501
 20
141.3816124101
 30
0.0
 11
184.8559924501
 21
141.3816124101
 31
0.0
  0
LINE
  5
28B
330
25F
100
AcDbEntity
  8
DV3_Default
  6
Continuous
 62
     7
 48
25.4
100
AcDbLine
 10
184.8559924501
 20
132.9816124101
 30
0.0
 11
16.8559924501
 21
132.9816124101
 31
0.0
  0
LINE
  5
28C
330
25F
100
AcDbEntity
  8
DV3_Default
  6
Continuous
 62
     7
 48
25.4
100
AcDbLine
 10
16.8559924501
 20
124.5816124101
 30
0.0
 11
184.8559924501
 21
124.5816124101
 31
0.0
  0
LINE
  5
28D
330
25F
100
AcDbEntity
  8
DV3_Default
  6
Continuous
 62
     7
 48
25.4
100
AcDbLine
 10
184.8559924501
 20
116.1816124101
 30
0.0
 11
16.8559924501
 21
116.1816124101
 31
0.0
  0
LINE
  5
28E
330
25F
100
AcDbEntity
  8
DV3_Default
  6
Continuous
 62
     7
 48
25.4
100
AcDbLine
 10
16.8559924501
 20
107.7816124101
 30
0.0
 11
184.8559924501
 21
107.7816124101
 31
0.0
  0
LINE
  5
28F
330
25F
100
AcDbEntity
  8
DV3_Default
  6
Continuous
 62
     7
 48
25.4
100
AcDbLine
 10
184.8559924501
 20
99.3816124101
 30
0.0
 11
16.8559924501
 21
99.3816124101
 31
0.0
  0
LINE
  5
290
330
25F
100
AcDbEntity
  8
DV3_Default
  6
Continuous
 62
     7
 48
25.4
100
AcDbLine
 10
16.8559924501
 20
90.9816124101
 30
0.0
 11
184.8559924501
 21
90.9816124101
 31
0.0
  0
LINE
  5
291
330
25F
100
AcDbEntity
  8
DV3_Default
  6
Continuous
 62
     7
 48
25.4
100
AcDbLine
 10
184.8559924501
 20
82.5816124101
 30
0.0
 11
16.8559924501
 21
82.5816124101
 31
0.0
  0
LINE
  5
292
330
25F
100
AcDbEntity
  8
DV3_Default
  6
Continuous
 62
     7
 48
25.4
100
AcDbLine
 10
16.8559924501
 20
74.1816124101
 30
0.0
 11
184.8559924501
 21
74.1816124101
 31
0.0
  0
LINE
  5
293
330
25F
100
AcDbEntity
  8
DV3_Default
  6
Continuous
 62
     7
 48
25.4
100
AcDbLine
 10
184.8559924501
 20
65.7816124101
 30
0.0
 11
16.8559924501
 21
65.7816124101
 31
0.0
  0
LINE
  5
294
330
25F
100
AcDbEntity
  8
DV3_Default
  6
Continuous
 62
     7
 48
25.4
100
AcDbLine
 10
16.8559924501
 20
57.3816124101
 30
0.0
 11
184.8559924501
 21
57.3816124101
 31
0.0
  0
LINE
  5
295
330
25F
100
AcDbEntity
  8
DV3_Default
  6
Continuous
 62
     7
 48
25.4
100
AcDbLine
 10
184.8559924501
 20
48.9816124101
 30
0.0
 11
16.8559924501
 21
48.9816124101
 31
0.0
  0
LINE
  5
296
330
25F
100
AcDbEntity
  8
DV3_Default
  6
Continuous
 62
     7
 48
25.4
100
AcDbLine
 10
16.8559924501
 20
40.5816124101
 30
0.0
 11
184.8559924501
 21
40.5816124101
 31
0.0
  0
LINE
  5
297
330
25F
100
AcDbEntity
  8
DV3_Default
  6
Continuous
 62
     7
 48
25.4
100
AcDbLine
 10
184.8559924501
 20
32.1816124101
 30
0.0
 11
16.8559924501
 21
32.1816124101
 31
0.0
  0
TEXT
  5
298
330
25F
100
AcDbEntity
  8
DV3_Default
  6
Continuous
 62
     7
 48
25.4
100
AcDbText
 10
72.6046207258
 20
163.4956339567
 30
0.0
 40
4.2
  1
Specifications
  7
SEACAD_arial_ttf
 11
72.6046207258
 21
167.6956339567
 31
0.0
100
AcDbText
 73
     3
  0
TEXT
  5
299
330
25F
100
AcDbEntity
  8
DV3_Default
  6
Continuous
 62
     7
 48
25.4
100
AcDbText
 10
18.6475069976
 20
135.6352584206
 30
0.0
 40
3.5
  1
MAX. GRIPPING RANGE
  7
SEACAD_arial_ttf
 11
18.6475069976
 21
139.1352584206
 31
0.0
100
AcDbText
 73
     3
  0
TEXT
  5
29A
330
25F
100
AcDbEntity
  8
DV3_Default
  6
Continuous
 62
     7
 48
25.4
100
AcDbText
 10
18.5969506401
 20
127.0892264637
 30
0.0
 40
3.5
  1
MIN. GRIPPING RANGE
  7
SEACAD_arial_ttf
 11
18.5969506401
 21
130.5892264637
 31
0.0
100
AcDbText
 73
     3
  0
TEXT
  5
29B
330
25F
100
AcDbEntity
  8
DV3_Default
  6
Continuous
 62
     7
 48
25.4
100
AcDbText
 10
18.7017854929
 20
118.6110561849
 30
0.0
 40
3.5
  1
JAW STROKE
  7
SEACAD_arial_ttf
 11
18.7017854929
 21
122.1110561849
 31
0.0
100
AcDbText
 73
     3
  0
TEXT
  5
29C
330
25F
100
AcDbEntity
  8
DV3_Default
  6
Continuous
 62
     7
 48
25.4
100
AcDbText
 10
18.5730059256
 20
110.1989591181
 30
0.0
 40
3.5
  1
PLUNGER STROKE
  7
SEACAD_arial_ttf
 11
18.5730059256
 21
113.6989591181
 31
0.0
100
AcDbText
 73
     3
  0
TEXT
  5
29D
330
25F
100
AcDbEntity
  8
DV3_Default
  6
Continuous
 62
     7
 48
25.4
100
AcDbText
 10
18.5428331212
 20
101.6727384339
 30
0.0
 40
3.5
  1
MAX. DRAW BAR PULL FORCE
  7
SEACAD_arial_ttf
 11
18.5428331212
 21
105.1727384339
 31
0.0
100
AcDbText
 73
     3
  0
TEXT
  5
29E
330
25F
100
AcDbEntity
  8
DV3_Default
  6
Continuous
 62
     7
 48
25.4
100
AcDbText
 10
18.677679802
 20
93.2812034541
 30
0.0
 40
3.5
  1
MAX. GRIPPING FORCE
  7
SEACAD_arial_ttf
 11
18.677679802
 21
96.7812034541
 31
0.0
100
AcDbText
 73
     3
  0
TEXT
  5
29F
330
25F
100
AcDbEntity
  8
DV3_Default
  6
Continuous
 62
     7
 48
25.4
100
AcDbText
 10
18.5667778357
 20
85.0614707721
 30
0.0
 40
3.5
  1
MAX. SPEED
  7
SEACAD_arial_ttf
 11
18.5667778357
 21
88.5614707721
 31
0.0
100
AcDbText
 73
     3
  0
TEXT
  5
2A0
330
25F
100
AcDbEntity
  8
DV3_Default
  6
Continuous
 62
     7
 48
25.4
100
AcDbText
 10
18.5335443564
 20
68.1444483648
 30
0.0
 40
3.5
  1
NET WEIGHT WITH SOFT TOP JAWS
  7
SEACAD_arial_ttf
 11
18.5335443564
 21
71.6444483648
 31
0.0
100
AcDbText
 73
     3
  0
TEXT
  5
2A1
330
25F
100
AcDbEntity
  8
DV3_Default
  6
Continuous
 62
     7
 48
25.4
100
AcDbText
 10
18.6278567012
 20
59.7434636438
 30
0.0
 40
3.5
  1
MOMENT OF INERTIA
  7
SEACAD_arial_ttf
 11
18.6278567012
 21
63.2434636438
 31
0.0
100
AcDbText
 73
     3
  0
TEXT
  5
2A2
330
25F
100
AcDbEntity
  8
DV3_Default
  6
Continuous
 62
     7
 48
25.4
100
AcDbText
 10
18.6853744052
 20
51.5059967797
 30
0.0
 40
3.5
  1
MATCHING CYLINDER(PRESSURE)
  7
SEACAD_arial_ttf
 11
18.6853744052
 21
55.0059967797
 31
0.0
100
AcDbText
 73
     3
  0
TEXT
  5
2A3
330
25F
100
AcDbEntity
  8
DV3_Default
  6
Continuous
 62
     7
 48
25.4
100
AcDbText
 10
18.6216286113
 20
34.5380926277
 30
0.0
 40
3.5
  1
MAX. PRESSURE
  7
SEACAD_arial_ttf
 11
18.6216286113
 21
38.0380926277
 31
0.0
100
AcDbText
 73
     3
  0
TEXT
  5
2A4
330
25F
100
AcDbEntity
  8
DV3_Default
  6
Continuous
 62
     7
 48
25.4
100
AcDbText
 10
18.5512609811
 20
26.502457447
 30
0.0
 40
3.5
  1
MATCHING HARD TOP JAW
  7
SEACAD_arial_ttf
 11
18.5512609811
 21
30.002457447
 31
0.0
100
AcDbText
 73
     3
  0
TEXT
  5
2A5
330
25F
100
AcDbEntity
  8
DV3_Default
  6
Continuous
 62
     7
 48
25.4
100
AcDbText
 10
18.5512609811
 20
17.7948061899
 30
0.0
 40
3.5
  1
MATCHING SOFT TOP JAW
  7
SEACAD_arial_ttf
 11
18.5512609811
 21
21.2948061899
 31
0.0
100
AcDbText
 73
     3
  0
LINE
  5
2A6
330
25F
100
AcDbEntity
  8
DV3_Default
  6
Continuous
 62
     7
 48
25.4
100
AcDbLine
 10
16.8559924501
 20
15.3816124101
 30
0.0
 11
184.8559924501
 21
15.3816124101
 31
0.0
  0
LINE
  5
2A7
330
25F
100
AcDbEntity
  8
DV3_Default
  6
Continuous
 62
     7
 48
25.4
100
AcDbLine
 10
121.7280055003
 20
149.7816124101
 30
0.0
 11
121.7280055003
 21
15.3816124101
 31
0.0
  0
LINE
  5
2A8
330
25F
100
AcDbEntity
  8
DV3_Default
  6
Continuous
 62
     7
 48
25.4
100
AcDbLine
 10
16.8559924501
 20
149.7816124101
 30
0.0
 11
16.8559924501
 21
15.3816124101
 31
0.0
  0
LINE
  5
2A9
330
25F
100
AcDbEntity
  8
DV3_Default
  6
Continuous
 62
     7
 48
25.4
100
AcDbLine
 10
184.8559924501
 20
149.7816124101
 30
0.0
 11
184.8559924501
 21
15.3816124101
 31
0.0
  0
TEXT
  5
2AA
330
25F
100
AcDbEntity
  8
DV3_Default
  6
Continuous
 62
     7
 48
25.4
100
AcDbText
 10
124.2337738692
 20
135.5363861213
 30
0.0
 40
3.5
  1
254mm
  7
SEACAD_arial_ttf
 11
124.2337738692
 21
139.0363861213
 31
0.0
100
AcDbText
 73
     3
  0
TEXT
  5
2AB
330
25F
100
AcDbEntity
  8
DV3_Default
  6
Continuous
 62
     7
 48
25.4
100
AcDbText
 10
124.2501635852
 20
127.1963833312
 30
0.0
 40
3.5
  1
24mm
  7
SEACAD_arial_ttf
 11
124.2501635852
 21
130.6963833312
 31
0.0
100
AcDbText
 73
     3
  0
TEXT
  5
2AC
330
25F
100
AcDbEntity
  8
DV3_Default
  6
Continuous
 62
     7
 48
25.4
100
AcDbText
 10
124.1042101364
 20
118.6364137946
 30
0.0
 40
3.5
  1
8.8mm
  7
SEACAD_arial_ttf
 11
124.1042101364
 21
122.1364137946
 31
0.0
100
AcDbText
 73
     3
  0
TEXT
  5
2AD
330
25F
100
AcDbEntity
  8
DV3_Default
  6
Continuous
 62
     7
 48
25.4
100
AcDbText
 10
124.223988474
 20
110.2484160662
 30
0.0
 40
3.5
  1
25mm
  7
SEACAD_arial_ttf
 11
124.223988474
 21
113.7484160662
 31
0.0
100
AcDbText
 73
     3
  0
TEXT
  5
2AE
330
25F
100
AcDbEntity
  8
DV3_Default
  6
Continuous
 62
     7
 48
25.4
100
AcDbText
 10
124.2940900105
 20
102.0086058818
 30
0.0
 40
3.5
  1
29kN
  7
SEACAD_arial_ttf
 11
124.2940900105
 21
105.5086058818
 31
0.0
100
AcDbText
 73
     3
  0
TEXT
  5
2AF
330
25F
100
AcDbEntity
  8
DV3_Default
  6
Continuous
 62
     7
 48
25.4
100
AcDbText
 10
123.8156301936
 20
93.6640149918
 30
0.0
 40
3.5
  1
108kN
  7
SEACAD_arial_ttf
 11
123.8156301936
 21
97.1640149918
 31
0.0
100
AcDbText
 73
     3
  0
TEXT
  5
2B0
330
25F
100
AcDbEntity
  8
DV3_Default
  6
Continuous
 62
     7
 48
25.4
100
AcDbText
 10
124.4067246543
 20
85.0452536735
 30
0.0
 40
3.5
  1
4010min-
  7
SEACAD_arial_ttf
 11
124.4067246543
 21
88.5452536735
 31
0.0
100
AcDbText
 73
     3
  0
TEXT
  5
2B1
330
25F
100
AcDbEntity
  8
DV3_Default
  6
Continuous
 62
     7
 48
25.4
100
AcDbText
 10
144.9502029152
 20
85.0452536735
 30
0.0
 40
3.2102777778
  1
¹
  7
SEACAD_arial_ttf
 11
144.9502029152
 21
88.2555314512
 31
0.0
100
AcDbText
 73
     3
  0
TEXT
  5
2B2
330
25F
100
AcDbEntity
  8
DV3_Default
  6
Continuous
 62
     7
 48
25.4
100
AcDbText
 10
124.1957375672
 20
77.0862910043
 30
0.0
 40
3.5
  1
36kN
  7
SEACAD_arial_ttf
 11
124.1957375672
 21
80.5862910043
 31
0.0
100
AcDbText
 73
     3
  0
TEXT
  5
2B3
330
25F
100
AcDbEntity
  8
DV3_Default
  6
Continuous
 62
     7
 48
25.4
100
AcDbText
 10
124.3780373292
 20
68.2498590296
 30
0.0
 40
3.5
  1
40kg
  7
SEACAD_arial_ttf
 11
124.3780373292
 21
71.7498590296
 31
0.0
100
AcDbText
 73
     3
  0
TEXT
  5
2B4
330
25F
100
AcDbEntity
  8
DV3_Default
  6
Continuous
 62
     7
 48
25.4
100
AcDbText
 10
124.1283940245
 20
59.9079354851
 30
0.0
 40
3.5
  1
0.328kg.m
  7
SEACAD_arial_ttf
 11
124.1283940245
 21
63.4079354851
 31
0.0
100
AcDbText
 73
     3
  0
TEXT
  5
2B5
330
25F
100
AcDbEntity
  8
DV3_Default
  6
Continuous
 62
     7
 48
25.4
100
AcDbText
 10
147.2588288071
 20
59.9079354851
 30
0.0
 40
3.2102777778
  1
²
  7
SEACAD_arial_ttf
 11
147.2588288071
 21
63.1182132629
 31
0.0
100
AcDbText
 73
     3
  0
TEXT
  5
2B6
330
25F
100
AcDbEntity
  8
DV3_Default
  6
Continuous
 62
     7
 48
25.4
100
AcDbText
 10
124.2665266016
 20
51.5259323694
 30
0.0
 40
3.5
  1
Y1225R
  7
SEACAD_arial_ttf
 11
124.2665266016
 21
55.0259323694
 31
0.0
100
AcDbText
 73
     3
  0
TEXT
  5
2B7
330
25F
100
AcDbEntity
  8
DV3_Default
  6
Continuous
 62
     7
 48
25.4
100
AcDbText
 10
124.302360073
 20
34.842513336
 30
0.0
 40
3.5
  1
2.80MPa
  7
SEACAD_arial_ttf
 11
124.302360073
 21
38.342513336
 31
0.0
100
AcDbText
 73
     3
  0
TEXT
  5
2B8
330
25F
100
AcDbEntity
  8
DV3_Default
  6
Continuous
 62
     7
 48
25.4
100
AcDbText
 10
124.0099010452
 20
26.2830224121
 30
0.0
 40
3.5
  1
HB10A1
  7
SEACAD_arial_ttf
 11
124.0099010452
 21
29.7830224121
 31
0.0
100
AcDbText
 73
     3
  0
LINE
  5
2B9
330
25F
100
AcDbEntity
  8
DV3_Default
  6
CENTER2
 62
     7
 48
25.4
100
AcDbLine
 10
202.4029735302
 20
147.1724291958
 30
0.0
 11
226.4983607405
 21
147.1724291958
 31
0.0
  0
LINE
  5
2BA
330
25F
100
AcDbEntity
  8
DV3_Default
  6
Continuous
 62
     7
 48
25.4
100
AcDbLine
 10
223.530416349
 20
147.1724291958
 30
0.0
 11
223.530416349
 21
152.7724291958
 31
0.0
  0
LINE
  5
2BB
330
25F
100
AcDbEntity
  8
DV3_Default
  6
Continuous
 62
     7
 48
25.4
100
AcDbLine
 10
214.430416349
 20
152.7724291958
 30
0.0
 11
214.430416349
 21
155.0477670686
 31
0.0
  0
LINE
  5
2BC
330
25F
100
AcDbEntity
  8
DV3_Default
  6
Continuous
 62
     7
 48
25.4
100
AcDbLine
 10
208.480416349
 20
147.1727670686
 30
0.0
 11
208.480416349
 21
153.2977670686
 31
0.0
  0
LINE
  5
2BD
330
25F
100
AcDbEntity
  8
DV3_Default
  6
Continuous
 62
     7
 48
25.4
100
AcDbLine
 10
210.230416349
 20
155.0477670686
 30
0.0
 11
214.430416349
 21
155.0477670686
 31
0.0
  0
LINE
  5
2BE
330
25F
100
AcDbEntity
  8
DV3_Default
  6
Continuous
 62
     7
 48
25.4
100
AcDbLine
 10
208.480416349
 20
153.2977670686
 30
0.0
 11
210.230416349
 21
155.0477670686
 31
0.0
  0
LINE
  5
2BF
330
25F
100
AcDbEntity
  8
DV3_Default
  6
Continuous
 62
     7
 48
25.4
100
AcDbLine
 10
214.430416349
 20
155.0477670686
 30
0.0
 11
214.1273074577
 21
155.3508759599
 31
0.0
  0
LINE
  5
2C0
330
25F
100
AcDbEntity
  8
DV3_Default
  6
Continuous
 62
     7
 48
25.4
100
AcDbLine
 10
223.5265079423
 20
147.1724291958
 30
0.0
 11
221.4265079423
 21
147.1724291958
 31
0.0
  0
LINE
  5
2C1
330
25F
100
AcDbEntity
  8
DV3_Default
  6
Continuous
 62
     7
 48
25.4
100
AcDbLine
 10
221.4265079423
 20
154.1724291958
 30
0.0
 11
221.4265079423
 21
159.7724291958
 31
0.0
  0
LINE
  5
2C2
330
25F
100
AcDbEntity
  8
DV3_Default
  6
Continuous
 62
     7
 48
25.4
100
AcDbLine
 10
220.0265079423
 20
161.1724291958
 30
0.0
 11
209.5265079423
 21
161.1724291958
 31
0.0
  0
LINE
  5
2C3
330
25F
100
AcDbEntity
  8
DV3_Default
  6
Continuous
 62
     7
 48
25.4
100
AcDbLine
 10
221.4265079423
 20
159.7724291958
 30
0.0
 11
220.0265079423
 21
161.1724291958
 31
0.0
  0
LINE
  5
2C4
330
25F
100
AcDbEntity
  8
DV3_Default
  6
Continuous
 62
     7
 48
25.4
100
AcDbLine
 10
214.1273074577
 20
155.3508759599
 30
0.0
 11
209.5191647075
 21
155.3508759599
 31
0.0
  0
LINE
  5
2C5
330
25F
100
AcDbEntity
  8
DV3_Default
  6
Continuous
 62
     7
 48
25.4
100
AcDbLine
 10
208.1191647075
 20
153.9508759599
 30
0.0
 11
208.1191647075
 21
147.1724291958
 31
0.0
  0
LINE
  5
2C6
330
25F
100
AcDbEntity
  8
DV3_Default
  6
Continuous
 62
     7
 48
25.4
100
AcDbLine
 10
223.530416349
 20
147.1724291958
 30
0.0
 11
223.530416349
 21
141.5724291958
 31
0.0
  0
LINE
  5
2C7
330
25F
100
AcDbEntity
  8
DV3_Default
  6
Continuous
 62
     7
 48
25.4
100
AcDbLine
 10
208.480416349
 20
147.1720913231
 30
0.0
 11
208.480416349
 21
141.0470913231
 31
0.0
  0
LINE
  5
2C8
330
25F
100
AcDbEntity
  8
DV3_Default
  6
Continuous
 62
     7
 48
25.4
100
AcDbLine
 10
210.230416349
 20
139.2970913231
 30
0.0
 11
214.430416349
 21
139.2970913231
 31
0.0
  0
LINE
  5
2C9
330
25F
100
AcDbEntity
  8
DV3_Default
  6
Continuous
 62
     7
 48
25.4
100
AcDbLine
 10
208.480416349
 20
141.0470913231
 30
0.0
 11
210.230416349
 21
139.2970913231
 31
0.0
  0
LINE
  5
2CA
330
25F
100
AcDbEntity
  8
DV3_Default
  6
Continuous
 62
     7
 48
25.4
100
AcDbLine
 10
214.430416349
 20
139.2970913231
 30
0.0
 11
214.1273074577
 21
138.9939824318
 31
0.0
  0
LINE
  5
2CB
330
25F
100
AcDbEntity
  8
DV3_Default
  6
Continuous
 62
     7
 48
25.4
100
AcDbLine
 10
221.4265079423
 20
140.1724291958
 30
0.0
 11
221.4265079423
 21
134.5724291958
 31
0.0
  0
LINE
  5
2CC
330
25F
100
AcDbEntity
  8
DV3_Default
  6
Continuous
 62
     7
 48
25.4
100
AcDbLine
 10
220.0265079423
 20
133.1724291958
 30
0.0
 11
209.5265079423
 21
133.1724291958
 31
0.0
  0
LINE
  5
2CD
330
25F
100
AcDbEntity
  8
DV3_Default
  6
Continuous
 62
     7
 48
25.4
100
AcDbLine
 10
221.4265079423
 20
134.5724291958
 30
0.0
 11
220.0265079423
 21
133.1724291958
 31
0.0
  0
LINE
  5
2CE
330
25F
100
AcDbEntity
  8
DV3_Default
  6
Continuous
 62
     7
 48
25.4
100
AcDbLine
 10
214.1273074577
 20
138.9939824318
 30
0.0
 11
209.5191647075
 21
138.9939824318
 31
0.0
  0
LINE
  5
2CF
330
25F
100
AcDbEntity
  8
DV3_Default
  6
Continuous
 62
     7
 48
25.4
100
AcDbLine
 10
208.1191647075
 20
140.3939824318
 30
0.0
 11
208.1191647075
 21
147.1724291958
 31
0.0
  0
LINE
  5
2D0
330
25F
100
AcDbEntity
  8
DV3_Default
  6
Continuous
 62
     7
 48
25.4
100
AcDbLine
 10
269.1640712211
 20
52.9051138146
 30
0.0
 11
409.1640712211
 21
52.9051138146
 31
0.0
  0
LINE
  5
2D1
330
25F
100
AcDbEntity
  8
DV3_Default
  6
Continuous
 62
     7
 48
25.4
100
AcDbLine
 10
409.1640712211
 20
70.7551138146
 30
0.0
 11
269.1640712211
 21
70.7551138146
 31
0.0
  0
LINE
  5
2D2
330
25F
100
AcDbEntity
  8
DV3_Default
  6
Continuous
 62
     7
 48
25.4
100
AcDbLine
 10
269.1640712211
 20
88.6051138146
 30
0.0
 11
409.1640712211
 21
88.6051138146
 31
0.0
  0
LINE
  5
2D3
330
25F
100
AcDbEntity
  8
DV3_Default
  6
Continuous
 62
     7
 48
25.4
100
AcDbLine
 10
409.1640712211
 20
106.4551138146
 30
0.0
 11
269.1640712211
 21
106.4551138146
 31
0.0
  0
LINE
  5
2D4
330
25F
100
AcDbEntity
  8
DV3_Default
  6
Continuous
 62
     7
 48
25.4
100
AcDbLine
 10
269.1640712211
 20
124.3051138146
 30
0.0
 11
409.1640712211
 21
124.3051138146
 31
0.0
  0
ARC
  5
2D5
330
25F
100
AcDbEntity
  8
DV3_Default
  6
Continuous
 62
     7
 48
25.4
100
AcDbCircle
 10
297.2700292488
 20
278.0161867346
 30
0.0
 40
237.3459868825478
100
AcDbArc
 50
280.4059648262
 51
298.0279798877
  0
ARC
  5
2D6
330
25F
100
AcDbEntity
  8
DV3_Default
  6
Continuous
 62
     7
 48
25.4
100
AcDbCircle
 10
254.9954122272
 20
-160.6270210458
 30
0.0
 40
222.1643361097329
100
AcDbArc
 50
67.4648777449
 51
86.3434469386
  0
ARC
  5
2D7
330
25F
100
AcDbEntity
  8
DV3_Default
  6
Continuous
 62
     7
 48
25.4
100
AcDbCircle
 10
269.1640712211
 20
-83.6771125927
 30
0.0
 40
154.4322264072815
100
AcDbArc
 50
57.7676553803
 51
90.0
  0
ARC
  5
2D8
330
25F
100
AcDbEntity
  8
DV3_Default
  6
Continuous
 62
     7
 48
25.4
100
AcDbCircle
 10
271.0890838778
 20
-73.8505105537
 30
0.0
 40
153.8192299871661
100
AcDbArc
 50
53.5161418565
 51
90.7170623596
  0
ARC
  5
2D9
330
25F
100
AcDbEntity
  8
DV3_Default
  6
Continuous
 62
     7
 48
25.4
100
AcDbCircle
 10
274.6899397192
 20
-56.1465338176
 30
0.0
 40
146.6668022902813
100
AcDbArc
 50
48.0725129985
 51
92.1592063833
  0
ARC
  5
2DA
330
25F
100
AcDbEntity
  8
DV3_Default
  6
Continuous
 62
     7
 48
25.4
100
AcDbCircle
 10
270.8977339437
 20
-63.3385518043
 30
0.0
 40
162.9549376785301
100
AcDbArc
 50
47.1767378183
 51
90.6095760733
  0
ARC
  5
2DB
330
25F
100
AcDbEntity
  8
DV3_Default
  6
Continuous
 62
     7
 48
25.4
100
AcDbCircle
 10
265.126084492
 20
-69.529842268
 30
0.0
 40
179.7765608520228
100
AcDbArc
 50
45.91968617
 51
88.7029236473
  0
ARC
  5
2DC
330
25F
100
AcDbEntity
  8
DV3_Default
  6
Continuous
 62
     7
 48
25.4
100
AcDbCircle
 10
262.6191787758
 20
-73.9544133569
 30
0.0
 40
193.7349138622952
100
AcDbArc
 50
45.2499189759
 51
88.0640243301
  0
ARC
  5
2DD
330
25F
100
AcDbEntity
  8
DV3_Default
  6
Continuous
 62
     7
 48
25.4
100
AcDbCircle
 10
258.1012261698
 20
-79.9749748444
 30
0.0
 40
211.5579101537053
100
AcDbArc
 50
44.5754720951
 51
87.0025060104
  0
LINE
  5
2DE
330
25F
100
AcDbEntity
  8
DV3_Default
  6
Continuous
 62
     7
 48
25.4
100
AcDbLine
 10
302.4140712211
 20
35.0551138146
 30
0.0
 11
302.4140712211
 21
142.1551138146
 31
0.0
  0
LINE
  5
2DF
330
25F
100
AcDbEntity
  8
DV3_Default
  6
Continuous
 62
     7
 48
25.4
100
AcDbLine
 10
335.6640712211
 20
142.1551138146
 30
0.0
 11
335.6640712211
 21
35.0551138146
 31
0.0
  0
LINE
  5
2E0
330
25F
100
AcDbEntity
  8
DV3_Default
  6
Continuous
 62
     7
 48
25.4
100
AcDbLine
 10
368.9140712211
 20
35.0551138146
 30
0.0
 11
368.9140712211
 21
142.1551138146
 31
0.0
  0
LINE
  5
2E1
330
25F
100
AcDbEntity
  8
DV3_Default
  6
Continuous
 62
     7
 48
25.4
100
AcDbLine
 10
368.9140712211
 20
142.1551138146
 30
0.0
 11
402.1640712211
 21
142.1551138146
 31
0.0
  0
LINE
  5
2E2
330
25F
100
AcDbEntity
  8
DV3_Default
  6
Continuous
 62
     7
 48
25.4
100
AcDbLine
 10
402.1640712211
 20
142.1551138146
 30
0.0
 11
402.1640712211
 21
35.0551138146
 31
0.0
  0
LINE
  5
2E3
330
25F
100
AcDbEntity
  8
DV3_Default
  6
Continuous
 62
     7
 48
25.4
100
AcDbLine
 10
409.1640712211
 20
35.0551138146
 30
0.0
 11
409.1640712211
 21
142.1551138146
 31
0.0
  0
TEXT
  5
2E4
330
25F
100
AcDbEntity
  8
DV3_Default
  6
Continuous
 62
     7
 48
25.4
100
AcDbText
 10
259.1886646933
 20
140.3306984629
 30
0.0
 40
3.5
  1
120
  7
SEACAD_arial_ttf
 11
259.1886646933
 21
143.8306984629
 31
0.0
100
AcDbText
 73
     3
  0
TEXT
  5
2E5
330
25F
100
AcDbEntity
  8
DV3_Default
  6
Continuous
 62
     7
 48
25.4
100
AcDbText
 10
18.6046452433
 20
43.1101639473
 30
0.0
 40
3.5
  1
MATCHING CYLINDER(AIR)
  7
SEACAD_arial_ttf
 11
18.6046452433
 21
46.6101639473
 31
0.0
100
AcDbText
 73
     3
  0
TEXT
  5
2E6
330
25F
100
AcDbEntity
  8
DV3_Default
  6
Continuous
 62
     7
 48
25.4
100
AcDbText
 10
124.3723341149
 20
43.2004139747
 30
0.0
 40
3.5
  1
AY2225R
  7
SEACAD_arial_ttf
 11
124.3723341149
 21
46.7004139747
 31
0.0
100
AcDbText
 73
     3
  0
ARC
  5
2E7
330
25F
100
AcDbEntity
  8
DV3_Default
  6
Continuous
 62
     7
 48
25.4
100
AcDbCircle
 10
209.5191647075
 20
153.9508759599
 30
0.0
 40
1.4
100
AcDbArc
 50
90.0
 51
180.0
  0
ARC
  5
2E8
330
25F
100
AcDbEntity
  8
DV3_Default
  6
Continuous
 62
     7
 48
25.4
100
AcDbCircle
 10
209.5191647075
 20
140.3939824318
 30
0.0
 40
1.4
100
AcDbArc
 50
180.0
 51
270.0
  0
LINE
  5
2E9
330
25F
100
AcDbEntity
  8
DV3_Default
  6
Continuous
 62
     7
 48
25.4
100
AcDbLine
 10
214.7394885365
 20
141.2224291958
 30
0.0
 11
217.230416349
 21
141.2224291958
 31
0.0
  0
LINE
  5
2EA
330
25F
100
AcDbEntity
  8
DV3_Default
  6
Continuous
 62
     7
 48
25.4
100
AcDbLine
 10
217.230416349
 20
141.2224291958
 30
0.0
 11
217.230416349
 21
141.5724291958
 31
0.0
  0
ARC
  5
2EB
330
25F
100
AcDbEntity
  8
DV3_Default
  6
Continuous
 62
     7
 48
25.4
100
AcDbCircle
 10
214.7394885365
 20
140.9133570083
 30
0.0
 40
0.3090721875463252
100
AcDbArc
 50
90.0
 51
180.0000001298
  0
LINE
  5
2EC
330
25F
100
AcDbEntity
  8
DV3_Default
  6
Continuous
 62
     7
 48
25.4
100
AcDbLine
 10
214.430416349
 20
139.2970913231
 30
0.0
 11
214.430416349
 21
141.5724291958
 31
0.0
  0
LINE
  5
2ED
330
25F
100
AcDbEntity
  8
DV3_Default
  6
Continuous
 62
     7
 48
25.4
100
AcDbLine
 10
214.7394885365
 20
153.1224291958
 30
0.0
 11
217.230416349
 21
153.1224291958
 31
0.0
  0
LINE
  5
2EE
330
25F
100
AcDbEntity
  8
DV3_Default
  6
Continuous
 62
     7
 48
25.4
100
AcDbLine
 10
217.230416349
 20
153.1224291958
 30
0.0
 11
217.230416349
 21
152.7724291958
 31
0.0
  0
ARC
  5
2EF
330
25F
100
AcDbEntity
  8
DV3_Default
  6
Continuous
 62
     7
 48
25.4
100
AcDbCircle
 10
214.7394885365
 20
153.4315013834
 30
0.0
 40
0.3090721875463252
100
AcDbArc
 50
179.9999998702
 51
270.0
  0
LINE
  5
2F0
330
25F
100
AcDbEntity
  8
DV3_Default
  6
Continuous
 62
     7
 48
25.4
100
AcDbLine
 10
217.9265079423
 20
161.1724291958
 30
0.0
 11
217.9265079423
 21
175.1724291958
 31
0.0
  0
LINE
  5
2F1
330
25F
100
AcDbEntity
  8
DV3_Default
  6
Continuous
 62
     7
 48
25.4
100
AcDbLine
 10
217.9265079423
 20
133.1724291958
 30
0.0
 11
217.9265079423
 21
119.1724291958
 31
0.0
  0
LINE
  5
2F2
330
25F
100
AcDbEntity
  8
DV3_Default
  6
Continuous
 62
     7
 48
25.4
100
AcDbLine
 10
221.4265079423
 20
154.1724291958
 30
0.0
 11
220.0265079423
 21
152.7724291958
 31
0.0
  0
LINE
  5
2F3
330
25F
100
AcDbEntity
  8
DV3_Default
  6
Continuous
 62
     7
 48
25.4
100
AcDbLine
 10
221.4265079423
 20
140.1724291958
 30
0.0
 11
220.0265079423
 21
141.5724291958
 31
0.0
  0
LINE
  5
2F4
330
25F
100
AcDbEntity
  8
DV3_Default
  6
Continuous
 62
     7
 48
25.4
100
AcDbLine
 10
214.430416349
 20
152.7724291958
 30
0.0
 11
223.530416349
 21
152.7724291958
 31
0.0
  0
LINE
  5
2F5
330
25F
100
AcDbEntity
  8
DV3_Default
  6
Continuous
 62
     7
 48
25.4
100
AcDbLine
 10
214.430416349
 20
141.5724291958
 30
0.0
 11
223.530416349
 21
141.5724291958
 31
0.0
  0
LINE
  5
2F6
330
25F
100
AcDbEntity
  8
DV3_Default
  6
Continuous
 62
     7
 48
25.4
100
AcDbLine
 10
220.0265079423
 20
133.1724291958
 30
0.0
 11
208.2556777356
 21
133.1724291958
 31
0.0
  0
LINE
  5
2F7
330
25F
100
AcDbEntity
  8
DV3_Default
  6
Continuous
 62
     7
 48
25.4
100
AcDbLine
 10
220.7265079423
 20
160.4724291958
 30
0.0
 11
220.7265079423
 21
153.4724291958
 31
0.0
  0
LINE
  5
2F8
330
25F
100
AcDbEntity
  8
DV3_Default
  6
Continuous
 62
     7
 48
25.4
100
AcDbLine
 10
220.7265079423
 20
140.8724291958
 30
0.0
 11
220.7265079423
 21
133.8724291958
 31
0.0
  0
ENDBLK
  5
2FA
330
25F
100
AcDbEntity
  8
0
100
AcDbBlockEnd
  0
BLOCK
  5
305
330
2FB
100
AcDbEntity
  8
0
100
AcDbBlockBegin
  2
GDimGGroup
 70
     0
 71
     0
 10
0.0
 20
0.0
 30
0.0
  3
GDimGGroup
  1

  0
HATCH
  5
2FD
330
2FB
100
AcDbEntity
  8
Default
  6
Continuous
 62
     7
 48
25.4
100
AcDbHatch
 10
0.0
 20
0.0
 30
0.0
210
0.0
220
0.0
230
1.0
  2
SOLID
 70
     1
 71
     0
 91
        1
 92
        1
 93
        3
 72
     1
 10
249.8414579136223
 20
137.1724293858395
 11
248.508124516959
 21
137.1724293858395
 72
     1
 10
248.508124516959
 20
137.1724293858395
 11
249.1747912152907
 21
133.1724291958497
 72
     1
 10
249.1747912152907
 20
133.1724291958497
 11
249.8414579136223
 21
137.1724293858395
 97
        0
 75
     0
 76
     1
 98
        0
  0
LWPOLYLINE
  5
2FE
330
2FB
100
AcDbEntity
  8
Default
  6
Continuous
 62
     7
 48
25.4
370
    20
100
AcDbPolyline
 90
        4
 70
     1
 43
0.0
 10
249.8414579136
 20
137.1724293858
 10
249.1747912153
 20
133.1724291958
 10
248.508124517
 20
137.1724293858
 10
249.8414579136
 20
137.1724293858
  0
HATCH
  5
2FF
330
2FB
100
AcDbEntity
  8
Default
  6
Continuous
 62
     7
 48
25.4
100
AcDbHatch
 10
0.0
 20
0.0
 30
0.0
210
0.0
220
0.0
230
1.0
  2
SOLID
 70
     1
 71
     0
 91
        1
 92
        1
 93
        3
 72
     1
 10
249.8414579136223
 20
157.1724298701273
 11
249.1747912152907
 21
161.1724300601171
 72
     1
 10
249.1747912152907
 20
161.1724300601171
 11
248.508124516959
 21
157.1724298701273
 72
     1
 10
248.508124516959
 20
157.1724298701273
 11
249.8414579136223
 21
157.1724298701273
 97
        0
 75
     0
 76
     1
 98
        0
  0
LWPOLYLINE
  5
300
330
2FB
100
AcDbEntity
  8
Default
  6
Continuous
 62
     7
 48
25.4
370
    20
100
AcDbPolyline
 90
        4
 70
     1
 43
0.0
 10
249.8414579136
 20
157.1724298701
 10
249.1747912153
 20
161.1724300601
 10
248.508124517
 20
157.1724298701
 10
249.8414579136
 20
157.1724298701
  0
LINE
  5
301
330
2FB
100
AcDbEntity
  8
Default
  6
Continuous
 62
     7
 48
25.4
100
AcDbLine
 10
220.0265078007
 20
133.1724291958
 30
0.0
 11
251.1747913103
 21
133.1724291958
 31
0.0
  0
LINE
  5
302
330
2FB
100
AcDbEntity
  8
Default
  6
Continuous
 62
     7
 48
25.4
100
AcDbLine
 10
220.0265079423
 20
161.1724291958
 30
0.0
 11
251.1747913103
 21
161.1724291958
 31
0.0
  0
LINE
  5
303
330
2FB
100
AcDbEntity
  8
Default
  6
Continuous
 62
     7
 48
25.4
100
AcDbLine
 10
249.1747912153
 20
133.1724291958
 30
0.0
 11
249.1747912153
 21
161.1724300601
 31
0.0
  0
TEXT
  5
304
330
2FB
100
AcDbEntity
  8
Default
  6
Continuous
 62
     7
 48
25.4
100
AcDbText
 10
248.1747912153
 20
144.0419948454
 30
0.0
 40
4.0
  1
40
 50
90.0
  7
SEACAD_arial_ttf
 11
244.1747912153
 21
144.0419948454
 31
0.0
100
AcDbText
 73
     3
  0
ENDBLK
  5
306
330
2FB
100
AcDbEntity
  8
0
100
AcDbBlockEnd
  0
BLOCK
  5
311
330
307
100
AcDbEntity
  8
0
100
AcDbBlockBegin
  2
GDimGGroup1
 70
     0
 71
     0
 10
0.0
 20
0.0
 30
0.0
  3
GDimGGroup1
  1

  0
HATCH
  5
309
330
307
100
AcDbEntity
  8
Default
  6
Continuous
 62
     7
 48
25.4
100
AcDbHatch
 10
0.0
 20
0.0
 30
0.0
210
0.0
220
0.0
230
1.0
  2
SOLID
 70
     1
 71
     0
 91
        1
 92
        1
 93
        3
 72
     1
 10
227.5304165389832
 20
176.9844093210336
 11
223.5304163489934
 21
176.317742622702
 72
     1
 10
223.5304163489934
 20
176.317742622702
 11
227.5304165389832
 21
175.6510759243704
 72
     1
 10
227.5304165389832
 20
175.6510759243704
 11
227.5304165389832
 21
176.9844093210336
 97
        0
 75
     0
 76
     1
 98
        0
  0
LWPOLYLINE
  5
30A
330
307
100
AcDbEntity
  8
Default
  6
Continuous
 62
     7
 48
25.4
370
    20
100
AcDbPolyline
 90
        4
 70
     1
 43
0.0
 10
227.530416539
 20
176.984409321
 10
223.530416349
 20
176.3177426227
 10
227.530416539
 20
175.6510759244
 10
227.530416539
 20
176.984409321
  0
HATCH
  5
30B
330
307
100
AcDbEntity
  8
Default
  6
Continuous
 62
     7
 48
25.4
100
AcDbHatch
 10
0.0
 20
0.0
 30
0.0
210
0.0
220
0.0
230
1.0
  2
SOLID
 70
     1
 71
     0
 91
        1
 92
        1
 93
        3
 72
     1
 10
217.4265077523192
 20
176.9844093210336
 11
217.4265077523192
 21
175.6510759243704
 72
     1
 10
217.4265077523192
 20
175.6510759243704
 11
221.426507942309
 21
176.317742622702
 72
     1
 10
221.426507942309
 20
176.317742622702
 11
217.4265077523192
 21
176.9844093210336
 97
        0
 75
     0
 76
     1
 98
        0
  0
LWPOLYLINE
  5
30C
330
307
100
AcDbEntity
  8
Default
  6
Continuous
 62
     7
 48
25.4
370
    20
100
AcDbPolyline
 90
        4
 70
     1
 43
0.0
 10
217.4265077523
 20
176.984409321
 10
221.4265079423
 20
176.3177426227
 10
217.4265077523
 20
175.6510759244
 10
217.4265077523
 20
176.984409321
  0
LINE
  5
30D
330
307
100
AcDbEntity
  8
Default
  6
Continuous
 62
     7
 48
25.4
100
AcDbLine
 10
223.530416349
 20
147.1724291958
 30
0.0
 11
223.530416349
 21
178.3177427177
 31
0.0
  0
LINE
  5
30E
330
307
100
AcDbEntity
  8
Default
  6
Continuous
 62
     7
 48
25.4
100
AcDbLine
 10
221.4265079423
 20
159.7724291958
 30
0.0
 11
221.4265079423
 21
178.3177427177
 31
0.0
  0
LINE
  5
30F
330
307
100
AcDbEntity
  8
Default
  6
Continuous
 62
     7
 48
25.4
100
AcDbLine
 10
235.7003045921
 20
176.3177426227
 30
0.0
 11
213.4265079815
 21
176.3177426227
 31
0.0
  0
TEXT
  5
310
330
307
100
AcDbEntity
  8
Default
  6
Continuous
 62
     7
 48
25.4
100
AcDbText
 10
231.1698696796
 20
177.3177426227
 30
0.0
 40
4.0
  1
3
  7
SEACAD_arial_ttf
 11
231.1698696796
 21
181.3177426227
 31
0.0
100
AcDbText
 73
     3
  0
ENDBLK
  5
312
330
307
100
AcDbEntity
  8
0
100
AcDbBlockEnd
  0
BLOCK
  5
31F
330
313
100
AcDbEntity
  8
0
100
AcDbBlockBegin
  2
GDimGGroup2
 70
     0
 71
     0
 10
0.0
 20
0.0
 30
0.0
  3
GDimGGroup2
  1

  0
HATCH
  5
315
330
313
100
AcDbEntity
  8
Default
  6
Continuous
 62
     7
 48
25.4
100
AcDbHatch
 10
0.0
 20
0.0
 30
0.0
210
0.0
220
0.0
230
1.0
  2
SOLID
 70
     1
 71
     0
 91
        1
 92
        1
 93
        3
 72
     1
 10
231.1826963719
 20
244.2794637652292
 11
230.5160296735684
 21
248.279463955219
 72
     1
 10
230.5160296735684
 20
248.279463955219
 11
229.8493629752367
 21
244.2794637652292
 72
     1
 10
229.8493629752367
 20
244.2794637652292
 11
231.1826963719
 21
244.2794637652292
 97
        0
 75
     0
 76
     1
 98
        0
  0
LWPOLYLINE
  5
316
330
313
100
AcDbEntity
  8
Default
  6
Continuous
 62
     7
 48
25.4
370
    20
100
AcDbPolyline
 90
        4
 70
     1
 43
0.0
 10
231.1826963719
 20
244.2794637652
 10
230.5160296736
 20
248.2794639552
 10
229.8493629752
 20
244.2794637652
 10
231.1826963719
 20
244.2794637652
  0
HATCH
  5
317
330
313
100
AcDbEntity
  8
Default
  6
Continuous
 62
     7
 48
25.4
100
AcDbHatch
 10
0.0
 20
0.0
 30
0.0
210
0.0
220
0.0
230
1.0
  2
SOLID
 70
     1
 71
     0
 91
        1
 92
        1
 93
        3
 72
     1
 10
231.1826963719
 20
234.674980853702
 11
229.8493629752367
 21
234.674980853702
 72
     1
 10
229.8493629752367
 20
234.674980853702
 11
230.5160296735684
 21
230.6749806637122
 72
     1
 10
230.5160296735684
 20
230.6749806637122
 11
231.1826963719
 21
234.674980853702
 97
        0
 75
     0
 76
     1
 98
        0
  0
LWPOLYLINE
  5
318
330
313
100
AcDbEntity
  8
Default
  6
Continuous
 62
     7
 48
25.4
370
    20
100
AcDbPolyline
 90
        4
 70
     1
 43
0.0
 10
231.1826963719
 20
234.6749808537
 10
230.5160296736
 20
230.6749806637
 10
229.8493629752
 20
234.6749808537
 10
231.1826963719
 20
234.6749808537
  0
LINE
  5
319
330
313
100
AcDbEntity
  8
Default
  6
Continuous
 62
     7
 48
25.4
100
AcDbLine
 10
217.6638628942
 20
248.2794639552
 30
0.0
 11
232.5160297686
 21
248.2794639552
 31
0.0
  0
LINE
  5
31A
330
313
100
AcDbEntity
  8
Default
  6
Continuous
 62
     7
 48
25.4
100
AcDbLine
 10
217.6638628942
 20
230.674980031
 30
0.0
 11
232.5160297686
 21
230.674980031
 31
0.0
  0
LINE
  5
31B
330
313
100
AcDbEntity
  8
Default
  6
Continuous
 62
     7
 48
25.4
100
AcDbLine
 10
230.5160296736
 20
248.2794639552
 30
0.0
 11
230.5160296736
 21
230.6749806637
 31
0.0
  0
TEXT
  5
31C
330
313
100
AcDbEntity
  8
Default
  6
Continuous
 62
     7
 48
25.4
100
AcDbText
 10
229.5160296736
 20
240.0274892812
 30
0.0
 40
4.0
  1
25
 50
90.0
  7
SEACAD_arial_ttf
 11
225.5160296736
 21
240.0274892812
 31
0.0
100
AcDbText
 73
     3
  0
TEXT
  5
31E
330
313
100
AcDbEntity
  8
Default
  6
Continuous
 62
     7
 48
25.4
100
AcDbText
 10
229.5160296736
 20
232.6660857725
 30
0.0
 40
4.0
  1
O
 50
90.0
  7
SEACAD_semeca1_ttf
 11
225.5160296736
 21
232.6660857725
 31
0.0
100
AcDbText
 73
     3
  0
ENDBLK
  5
320
330
313
100
AcDbEntity
  8
0
100
AcDbBlockEnd
  0
BLOCK
  5
32B
330
321
100
AcDbEntity
  8
0
100
AcDbBlockBegin
  2
GDimGGroup3
 70
     0
 71
     0
 10
0.0
 20
0.0
 30
0.0
  3
GDimGGroup3
  1

  0
HATCH
  5
323
330
321
100
AcDbEntity
  8
Default
  6
Continuous
 62
     7
 48
25.4
100
AcDbHatch
 10
0.0
 20
0.0
 30
0.0
210
0.0
220
0.0
230
1.0
  2
SOLID
 70
     1
 71
     0
 91
        1
 92
        1
 93
        3
 72
     1
 10
423.8161384068238
 20
401.6391686536874
 11
419.816138216834
 21
400.9725019553557
 72
     1
 10
419.816138216834
 20
400.9725019553557
 11
423.8161384068238
 21
400.3058352570241
 72
     1
 10
423.8161384068238
 20
400.3058352570241
 11
423.8161384068238
 21
401.6391686536874
 97
        0
 75
     0
 76
     1
 98
        0
  0
LWPOLYLINE
  5
324
330
321
100
AcDbEntity
  8
Default
  6
Continuous
 62
     7
 48
25.4
370
    20
100
AcDbPolyline
 90
        4
 70
     1
 43
0.0
 10
423.8161384068
 20
401.6391686537
 10
419.8161382168
 20
400.9725019554
 10
423.8161384068
 20
400.305835257
 10
423.8161384068
 20
401.6391686537
  0
HATCH
  5
325
330
321
100
AcDbEntity
  8
Default
  6
Continuous
 62
     7
 48
25.4
100
AcDbHatch
 10
0.0
 20
0.0
 30
0.0
210
0.0
220
0.0
230
1.0
  2
SOLID
 70
     1
 71
     0
 91
        1
 92
        1
 93
        3
 72
     1
 10
443.8161388911116
 20
401.6391686536874
 11
443.8161388911116
 21
400.3058352570241
 72
     1
 10
443.8161388911116
 20
400.3058352570241
 11
447.8161390811014
 21
400.9725019553557
 72
     1
 10
447.8161390811014
 20
400.9725019553557
 11
443.8161388911116
 21
401.6391686536874
 97
        0
 75
     0
 76
     1
 98
        0
  0
LWPOLYLINE
  5
326
330
321
100
AcDbEntity
  8
Default
  6
Continuous
 62
     7
 48
25.4
370
    20
100
AcDbPolyline
 90
        4
 70
     1
 43
0.0
 10
443.8161388911
 20
401.6391686537
 10
447.8161390811
 20
400.9725019554
 10
443.8161388911
 20
400.305835257
 10
443.8161388911
 20
401.6391686537
  0
LINE
  5
327
330
321
100
AcDbEntity
  8
Default
  6
Continuous
 62
     7
 48
25.4
100
AcDbLine
 10
419.8161382168
 20
387.7890758434
 30
0.0
 11
419.8161382168
 21
402.9725020504
 31
0.0
  0
LINE
  5
328
330
321
100
AcDbEntity
  8
Default
  6
Continuous
 62
     7
 48
25.4
100
AcDbLine
 10
447.8161382168
 20
387.7890758434
 30
0.0
 11
447.8161382168
 21
402.9725020504
 31
0.0
  0
LINE
  5
329
330
321
100
AcDbEntity
  8
Default
  6
Continuous
 62
     7
 48
25.4
100
AcDbLine
 10
419.8161382168
 20
400.9725019554
 30
0.0
 11
447.8161390811
 21
400.9725019554
 31
0.0
  0
TEXT
  5
32A
330
321
100
AcDbEntity
  8
Default
  6
Continuous
 62
     7
 48
25.4
100
AcDbText
 10
430.6857038664
 20
401.9725019554
 30
0.0
 40
4.0
  1
40
  7
SEACAD_arial_ttf
 11
430.6857038664
 21
405.9725019554
 31
0.0
100
AcDbText
 73
     3
  0
ENDBLK
  5
32C
330
321
100
AcDbEntity
  8
0
100
AcDbBlockEnd
  0
BLOCK
  5
337
330
32D
100
AcDbEntity
  8
0
100
AcDbBlockBegin
  2
GDimGGroup4
 70
     0
 71
     0
 10
0.0
 20
0.0
 30
0.0
  3
GDimGGroup4
  1

  0
HATCH
  5
32F
330
32D
100
AcDbEntity
  8
Default
  6
Continuous
 62
     7
 48
25.4
100
AcDbHatch
 10
0.0
 20
0.0
 30
0.0
210
0.0
220
0.0
230
1.0
  2
SOLID
 70
     1
 71
     0
 91
        1
 92
        1
 93
        3
 72
     1
 10
225.4265081322988
 20
176.9844102359649
 11
221.426507942309
 21
176.3177435376333
 72
     1
 10
221.426507942309
 20
176.3177435376333
 11
225.4265081322988
 21
175.6510768393017
 72
     1
 10
225.4265081322988
 20
175.6510768393017
 11
225.4265081322988
 21
176.9844102359649
 97
        0
 75
     0
 76
     1
 98
        0
  0
LWPOLYLINE
  5
330
330
32D
100
AcDbEntity
  8
Default
  6
Continuous
 62
     7
 48
25.4
370
    20
100
AcDbPolyline
 90
        4
 70
     1
 43
0.0
 10
225.4265081323
 20
176.984410236
 10
221.4265079423
 20
176.3177435376
 10
225.4265081323
 20
175.6510768393
 10
225.4265081323
 20
176.984410236
  0
HATCH
  5
331
330
32D
100
AcDbEntity
  8
Default
  6
Continuous
 62
     7
 48
25.4
100
AcDbHatch
 10
0.0
 20
0.0
 30
0.0
210
0.0
220
0.0
230
1.0
  2
SOLID
 70
     1
 71
     0
 91
        1
 92
        1
 93
        3
 72
     1
 10
213.9265077523192
 20
176.9844102359649
 11
213.9265077523192
 21
175.6510768393017
 72
     1
 10
213.9265077523192
 20
175.6510768393017
 11
217.926507942309
 21
176.3177435376333
 72
     1
 10
217.926507942309
 20
176.3177435376333
 11
213.9265077523192
 21
176.9844102359649
 97
        0
 75
     0
 76
     1
 98
        0
  0
LWPOLYLINE
  5
332
330
32D
100
AcDbEntity
  8
Default
  6
Continuous
 62
     7
 48
25.4
370
    20
100
AcDbPolyline
 90
        4
 70
     1
 43
0.0
 10
213.9265077523
 20
176.984410236
 10
217.9265079423
 20
176.3177435376
 10
213.9265077523
 20
175.6510768393
 10
213.9265077523
 20
176.984410236
  0
LINE
  5
333
330
32D
100
AcDbEntity
  8
Default
  6
Continuous
 62
     7
 48
25.4
100
AcDbLine
 10
221.4265079423
 20
159.7724291958
 30
0.0
 11
221.4265079423
 21
178.3177436326
 31
0.0
  0
LINE
  5
334
330
32D
100
AcDbEntity
  8
Default
  6
Continuous
 62
     7
 48
25.4
100
AcDbLine
 10
217.9265079423
 20
161.1724291958
 30
0.0
 11
217.9265079423
 21
178.3177436326
 31
0.0
  0
LINE
  5
335
330
32D
100
AcDbEntity
  8
Default
  6
Continuous
 62
     7
 48
25.4
100
AcDbLine
 10
229.4265083223
 20
176.3177435376
 30
0.0
 11
208.4663794562
 21
176.3177435376
 31
0.0
  0
TEXT
  5
336
330
32D
100
AcDbEntity
  8
Default
  6
Continuous
 62
     7
 48
25.4
100
AcDbText
 10
209.866379586
 20
177.3177435376
 30
0.0
 40
4.0
  1
5
  7
SEACAD_arial_ttf
 11
209.866379586
 21
181.3177435376
 31
0.0
100
AcDbText
 73
     3
  0
ENDBLK
  5
338
330
32D
100
AcDbEntity
  8
0
100
AcDbBlockEnd
  0
BLOCK
  5
344
330
339
100
AcDbEntity
  8
0
100
AcDbBlockBegin
  2
GDimGGroup5
 70
     0
 71
     0
 10
0.0
 20
0.0
 30
0.0
  3
GDimGGroup5
  1

  0
HATCH
  5
33B
330
339
100
AcDbEntity
  8
Default
  6
Continuous
 62
     7
 48
25.4
100
AcDbHatch
 10
0.0
 20
0.0
 30
0.0
210
0.0
220
0.0
230
1.0
  2
SOLID
 70
     1
 71
     0
 91
        1
 92
        1
 93
        3
 72
     1
 10
236.7625011938757
 20
156.7724293858396
 11
235.4291677972124
 21
156.7724293858396
 72
     1
 10
235.4291677972124
 20
156.7724293858396
 11
236.095834495544
 21
152.7724291958498
 72
     1
 10
236.095834495544
 20
152.7724291958498
 11
236.7625011938757
 21
156.7724293858396
 97
        0
 75
     0
 76
     1
 98
        0
  0
LWPOLYLINE
  5
33C
330
339
100
AcDbEntity
  8
Default
  6
Continuous
 62
     7
 48
25.4
370
    20
100
AcDbPolyline
 90
        4
 70
     1
 43
0.0
 10
236.7625011939
 20
156.7724293858
 10
236.0958344955
 20
152.7724291958
 10
235.4291677972
 20
156.7724293858
 10
236.7625011939
 20
156.7724293858
  0
HATCH
  5
33D
330
339
100
AcDbEntity
  8
Default
  6
Continuous
 62
     7
 48
25.4
100
AcDbHatch
 10
0.0
 20
0.0
 30
0.0
210
0.0
220
0.0
230
1.0
  2
SOLID
 70
     1
 71
     0
 91
        1
 92
        1
 93
        3
 72
     1
 10
236.7625011938757
 20
137.57242900586
 11
236.095834495544
 21
141.5724291958498
 72
     1
 10
236.095834495544
 20
141.5724291958498
 11
235.4291677972124
 21
137.57242900586
 72
     1
 10
235.4291677972124
 20
137.57242900586
 11
236.7625011938757
 21
137.57242900586
 97
        0
 75
     0
 76
     1
 98
        0
  0
LWPOLYLINE
  5
33E
330
339
100
AcDbEntity
  8
Default
  6
Continuous
 62
     7
 48
25.4
370
    20
100
AcDbPolyline
 90
        4
 70
     1
 43
0.0
 10
236.7625011939
 20
137.5724290059
 10
236.0958344955
 20
141.5724291958
 10
235.4291677972
 20
137.5724290059
 10
236.7625011939
 20
137.5724290059
  0
LINE
  5
33F
330
339
100
AcDbEntity
  8
Default
  6
Continuous
 62
     7
 48
25.4
100
AcDbLine
 10
223.530416349
 20
152.7724291958
 30
0.0
 11
238.0958345905
 21
152.7724291958
 31
0.0
  0
LINE
  5
340
330
339
100
AcDbEntity
  8
Default
  6
Continuous
 62
     7
 48
25.4
100
AcDbLine
 10
223.530416349
 20
141.5724291958
 30
0.0
 11
238.0958345905
 21
141.5724291958
 31
0.0
  0
LINE
  5
341
330
339
100
AcDbEntity
  8
Default
  6
Continuous
 62
     7
 48
25.4
100
AcDbLine
 10
236.0958344955
 20
160.7724295758
 30
0.0
 11
236.0958344955
 21
104.8085491934
 31
0.0
  0
TEXT
  5
342
330
339
100
AcDbEntity
  8
Default
  6
Continuous
 62
     7
 48
25.4
100
AcDbText
 10
235.0958344955
 20
106.2085511264
 30
0.0
 40
4.0
  1
16
 50
90.0
  7
SEACAD_arial_ttf
 11
231.0958344955
 21
106.2085511264
 31
0.0
100
AcDbText
 73
     3
  0
TEXT
  5
343
330
339
100
AcDbEntity
  8
Default
  6
Continuous
 62
     7
 48
25.4
100
AcDbText
 10
235.0958344955
 20
114.8694206916
 30
0.0
 40
4.0
  1
H8/h8
 50
90.0
  7
SEACAD_arial_ttf
 11
231.0958344955
 21
114.8694206916
 31
0.0
100
AcDbText
 73
     3
  0
ENDBLK
  5
345
330
339
100
AcDbEntity
  8
0
100
AcDbBlockEnd
  0
BLOCK
  5
34D
330
346
100
AcDbEntity
  8
0
100
AcDbBlockBegin
  2
GDimGGroup6
 70
     0
 71
     0
 10
0.0
 20
0.0
 30
0.0
  3
GDimGGroup6
  1

  0
LINE
  5
348
330
346
100
AcDbEntity
  8
Default
  6
Continuous
 62
     7
 48
25.4
100
AcDbLine
 10
433.8161382168
 20
299.0290758434
 30
0.0
 11
477.5175883312
 21
340.1263185182
 31
0.0
  0
HATCH
  5
349
330
346
100
AcDbEntity
  8
Default
  6
Continuous
 62
     7
 48
25.4
100
AcDbHatch
 10
0.0
 20
0.0
 30
0.0
210
0.0
220
0.0
230
1.0
  2
SOLID
 70
     1
 71
     0
 91
        1
 92
        1
 93
        3
 72
     1
 10
474.1469603760519
 20
337.8716981438401
 11
475.060384716569
 21
336.9003928773
 72
     1
 10
475.060384716569
 20
336.9003928773
 11
477.5175883459306
 21
340.1263185321214
 72
     1
 10
477.5175883459306
 20
340.1263185321214
 11
474.1469603760519
 21
337.8716981438401
 97
        0
 75
     0
 76
     1
 98
        0
  0
LWPOLYLINE
  5
34A
330
346
100
AcDbEntity
  8
Default
  6
Continuous
 62
     7
 48
25.4
370
    20
100
AcDbPolyline
 90
        4
 70
     1
 43
0.0
 10
474.1469603761
 20
337.8716981438
 10
477.5175883459
 20
340.1263185321
 10
475.0603847166
 20
336.9003928773
 10
474.1469603761
 20
337.8716981438
  0
TEXT
  5
34B
330
346
100
AcDbEntity
  8
Default
  6
Continuous
 62
     7
 48
25.4
100
AcDbText
 10
451.0661371939
 20
316.6238556978
 30
0.0
 40
4.0
  1
R
 50
43.2409727253
  7
SEACAD_arial_ttf
 11
448.3258643025
 21
319.537771359
 31
0.0
100
AcDbText
 73
     3
  0
TEXT
  5
34C
330
346
100
AcDbEntity
  8
Default
  6
Continuous
 62
     7
 48
25.4
100
AcDbText
 10
455.7284022518
 20
321.0082923241
 30
0.0
 40
4.0
  1
85.7
 50
43.2409727253
  7
SEACAD_arial_ttf
 11
452.9881293604
 21
323.9222079853
 31
0.0
100
AcDbText
 73
     3
  0
ENDBLK
  5
34E
330
346
100
AcDbEntity
  8
0
100
AcDbBlockEnd
  0
BLOCK
  5
359
330
34F
100
AcDbEntity
  8
0
100
AcDbBlockBegin
  2
GDimGGroup7
 70
     0
 71
     0
 10
0.0
 20
0.0
 30
0.0
  3
GDimGGroup7
  1

  0
HATCH
  5
351
330
34F
100
AcDbEntity
  8
Default
  6
Continuous
 62
     7
 48
25.4
100
AcDbHatch
 10
0.0
 20
0.0
 30
0.0
210
0.0
220
0.0
230
1.0
  2
SOLID
 70
     1
 71
     0
 91
        1
 92
        1
 93
        3
 72
     1
 10
498.1152180229934
 20
368.9640654677219
 11
501.4636002444564
 21
366.6765378710416
 72
     1
 10
501.4636002444564
 20
366.6765378710416
 11
499.0381124987526
 21
369.9263771289163
 72
     1
 10
499.0381124987526
 20
369.9263771289163
 11
498.1152180229934
 21
368.9640654677219
 97
        0
 75
     0
 76
     1
 98
        0
  0
LWPOLYLINE
  5
352
330
34F
100
AcDbEntity
  8
Default
  6
Continuous
 62
     7
 48
25.4
370
    20
100
AcDbPolyline
 90
        4
 70
     1
 43
0.0
 10
498.115218023
 20
368.9640654677
 10
501.4636002445
 20
366.676537871
 10
499.0381124988
 20
369.9263771289
 10
498.115218023
 20
368.9640654677
  0
HATCH
  5
353
330
34F
100
AcDbEntity
  8
Default
  6
Continuous
 62
     7
 48
25.4
100
AcDbHatch
 10
0.0
 20
0.0
 30
0.0
210
0.0
220
0.0
230
1.0
  2
SOLID
 70
     1
 71
     0
 91
        1
 92
        1
 93
        3
 72
     1
 10
437.8291983234648
 20
395.2799387310625
 11
433.8161361259442
 21
394.6970341030017
 72
     1
 10
433.8161361259443
 20
394.6970341030017
 11
437.8013261921591
 21
393.9468966871066
 72
     1
 10
437.8013261921591
 20
393.9468966871066
 11
437.8291983234648
 21
395.2799387310625
 97
        0
 75
     0
 76
     1
 98
        0
  0
LWPOLYLINE
  5
354
330
34F
100
AcDbEntity
  8
Default
  6
Continuous
 62
     7
 48
25.4
370
    20
100
AcDbPolyline
 90
        4
 70
     1
 43
0.0
 10
437.8291983235
 20
395.2799387311
 10
433.8161361259
 20
394.697034103
 10
437.8013261922
 20
393.9468966871
 10
437.8291983235
 20
395.2799387311
  0
LINE
  5
355
330
34F
100
AcDbEntity
  8
Default
  6
Continuous
 62
     7
 48
25.4
100
AcDbLine
 10
476.2354740059
 20
341.4484116325
 30
0.0
 11
502.8778114045
 21
368.090749031
 31
0.0
  0
LINE
  5
356
330
34F
100
AcDbEntity
  8
Default
  6
Continuous
 62
     7
 48
25.4
100
AcDbLine
 10
433.8161382168
 20
299.0290758434
 30
0.0
 11
433.8161382168
 21
396.6970307055
 31
0.0
  0
ARC
  5
357
330
34F
100
AcDbEntity
  8
Default
  6
Continuous
 62
     7
 48
25.4
100
AcDbCircle
 10
433.8161382168
 20
299.0290758434
 30
0.0
 40
95.66795825958234
100
AcDbArc
 50
45.0
 51
90.0000012522
  0
TEXT
  5
358
330
34F
100
AcDbEntity
  8
Default
  6
Continuous
 62
     7
 48
25.4
100
AcDbText
 10
466.8728341013
 20
389.9691881192
 30
0.0
 40
4.0
  1
45°
 50
337.5
  7
SEACAD_arial_ttf
 11
468.4035678308
 21
393.6647062492
 31
0.0
100
AcDbText
 73
     3
  0
ENDBLK
  5
35A
330
34F
100
AcDbEntity
  8
0
100
AcDbBlockEnd
  0
BLOCK
  5
365
330
35B
100
AcDbEntity
  8
0
100
AcDbBlockBegin
  2
GDimGGroup8
 70
     0
 71
     0
 10
0.0
 20
0.0
 30
0.0
  3
GDimGGroup8
  1

  0
HATCH
  5
35D
330
35B
100
AcDbEntity
  8
Default
  6
Continuous
 62
     7
 48
25.4
100
AcDbHatch
 10
0.0
 20
0.0
 30
0.0
210
0.0
220
0.0
230
1.0
  2
SOLID
 70
     1
 71
     0
 91
        1
 92
        1
 93
        3
 72
     1
 10
524.4682695810824
 20
327.4450135683867
 11
526.2242898481093
 21
323.7897654470721
 72
     1
 10
526.2242898481093
 20
323.7897654470721
 11
525.7486754726992
 21
327.8169526754595
 72
     1
 10
525.7486754726994
 20
327.8169526754595
 11
524.4682695810824
 21
327.4450135683867
 97
        0
 75
     0
 76
     1
 98
        0
  0
LWPOLYLINE
  5
35E
330
35B
100
AcDbEntity
  8
Default
  6
Continuous
 62
     7
 48
25.4
370
    20
100
AcDbPolyline
 90
        4
 70
     1
 43
0.0
 10
524.4682695811
 20
327.4450135684
 10
526.2242898481
 20
323.7897654471
 10
525.7486754727
 20
327.8169526755
 10
524.4682695811
 20
327.4450135684
  0
HATCH
  5
35F
330
35B
100
AcDbEntity
  8
Default
  6
Continuous
 62
     7
 48
25.4
100
AcDbHatch
 10
0.0
 20
0.0
 30
0.0
210
0.0
220
0.0
230
1.0
  2
SOLID
 70
     1
 71
     0
 91
        1
 92
        1
 93
        3
 72
     1
 10
504.7134385496084
 20
364.2510511551173
 11
501.4635992588016
 21
366.6765388566964
 72
     1
 10
501.4635992588016
 20
366.6765388566964
 11
503.7511269009445
 21
363.3281566662923
 72
     1
 10
503.7511269009445
 20
363.3281566662923
 11
504.7134385496084
 21
364.2510511551173
 97
        0
 75
     0
 76
     1
 98
        0
  0
LWPOLYLINE
  5
360
330
35B
100
AcDbEntity
  8
Default
  6
Continuous
 62
     7
 48
25.4
370
    20
100
AcDbPolyline
 90
        4
 70
     1
 43
0.0
 10
504.7134385496
 20
364.2510511551
 10
501.4635992588
 20
366.6765388567
 10
503.7511269009
 20
363.3281566663
 10
504.7134385496
 20
364.2510511551
  0
LINE
  5
361
330
35B
100
AcDbEntity
  8
Default
  6
Continuous
 62
     7
 48
25.4
100
AcDbLine
 10
491.7620285163
 20
314.5556303539
 30
0.0
 11
528.156138219
 21
324.3074026579
 31
0.0
  0
LINE
  5
362
330
35B
100
AcDbEntity
  8
Default
  6
Continuous
 62
     7
 48
25.4
100
AcDbLine
 10
476.2354740059
 20
341.4484116325
 30
0.0
 11
502.8778114045
 21
368.090749031
 31
0.0
  0
ARC
  5
363
330
35B
100
AcDbEntity
  8
Default
  6
Continuous
 62
     7
 48
25.4
100
AcDbCircle
 10
433.8161382168
 20
299.0290758434
 30
0.0
 40
95.66795825958239
100
AcDbArc
 50
15.0
 51
45.0000008348
  0
TEXT
  5
364
330
35B
100
AcDbEntity
  8
Default
  6
Continuous
 62
     7
 48
25.4
100
AcDbText
 10
515.402611019
 20
351.0530762589
 30
0.0
 40
4.0
  1
30°
 50
300.0
  7
SEACAD_arial_ttf
 11
518.8667126341
 21
353.0530762589
 31
0.0
100
AcDbText
 73
     3
  0
ENDBLK
  5
366
330
35B
100
AcDbEntity
  8
0
100
AcDbBlockEnd
  0
BLOCK
  5
371
330
367
100
AcDbEntity
  8
0
100
AcDbBlockBegin
  2
GDimGGroup9
 70
     0
 71
     0
 10
0.0
 20
0.0
 30
0.0
  3
GDimGGroup9
  1

  0
HATCH
  5
369
330
367
100
AcDbEntity
  8
Default
  6
Continuous
 62
     7
 48
25.4
100
AcDbHatch
 10
0.0
 20
0.0
 30
0.0
210
0.0
220
0.0
230
1.0
  2
SOLID
 70
     1
 71
     0
 91
        1
 92
        1
 93
        3
 72
     1
 10
528.7339589773795
 20
303.0142658939841
 11
529.4840964764165
 21
299.0290758434192
 72
     1
 10
529.4840964764164
 20
299.0290758434192
 11
530.0670010207539
 21
303.0421380531007
 72
     1
 10
530.0670010207539
 20
303.0421380531007
 11
528.7339589773795
 21
303.0142658939841
 97
        0
 75
     0
 76
     1
 98
        0
  0
LWPOLYLINE
  5
36A
330
367
100
AcDbEntity
  8
Default
  6
Continuous
 62
     7
 48
25.4
370
    20
100
AcDbPolyline
 90
        4
 70
     1
 43
0.0
 10
528.7339589774
 20
303.014265894
 10
529.4840964764
 20
299.0290758434
 10
530.0670010208
 20
303.0421380531
 10
528.7339589774
 20
303.014265894
  0
HATCH
  5
36B
330
367
100
AcDbEntity
  8
Default
  6
Continuous
 62
     7
 48
25.4
100
AcDbHatch
 10
0.0
 20
0.0
 30
0.0
210
0.0
220
0.0
230
1.0
  2
SOLID
 70
     1
 71
     0
 91
        1
 92
        1
 93
        3
 72
     1
 10
527.825989173847
 20
320.0643124970806
 11
526.224289667722
 21
323.789766120287
 72
     1
 10
526.224289667722
 20
323.789766120287
 11
526.5311555930165
 21
319.7462182585107
 72
     1
 10
526.5311555930166
 20
319.7462182585107
 11
527.8259891738471
 21
320.0643124970806
 97
        0
 75
     0
 76
     1
 98
        0
  0
LWPOLYLINE
  5
36C
330
367
100
AcDbEntity
  8
Default
  6
Continuous
 62
     7
 48
25.4
370
    20
100
AcDbPolyline
 90
        4
 70
     1
 43
0.0
 10
527.8259891738
 20
320.0643124971
 10
526.2242896677
 20
323.7897661203
 10
526.531155593
 20
319.7462182585
 10
527.8259891738
 20
320.0643124971
  0
LINE
  5
36D
330
367
100
AcDbEntity
  8
Default
  6
Continuous
 62
     7
 48
25.4
100
AcDbLine
 10
500.3161388725
 20
299.0290758434
 30
0.0
 11
531.484093079
 21
299.0290758434
 31
0.0
  0
LINE
  5
36E
330
367
100
AcDbEntity
  8
Default
  6
Continuous
 62
     7
 48
25.4
100
AcDbLine
 10
491.7620285163
 20
314.5556303539
 30
0.0
 11
528.156138219
 21
324.3074026579
 31
0.0
  0
ARC
  5
36F
330
367
100
AcDbEntity
  8
Default
  6
Continuous
 62
     7
 48
25.4
100
AcDbCircle
 10
433.8161382168
 20
299.0290758434
 30
0.0
 40
95.66795825958668
100
AcDbArc
 50
0.0
 51
15.0000004174
  0
TEXT
  5
370
330
367
100
AcDbEntity
  8
Default
  6
Continuous
 62
     7
 48
25.4
100
AcDbText
 10
529.1009336129
 20
315.8711935801
 30
0.0
 40
4.0
  1
15°
 50
277.5
  7
SEACAD_arial_ttf
 11
533.0667130584
 21
316.393298349
 31
0.0
100
AcDbText
 73
     3
  0
ENDBLK
  5
372
330
367
100
AcDbEntity
  8
0
100
AcDbBlockEnd
  0
BLOCK
  5
37D
330
373
100
AcDbEntity
  8
0
100
AcDbBlockBegin
  2
GDimGGroup10
 70
     0
 71
     0
 10
0.0
 20
0.0
 30
0.0
  3
GDimGGroup10
  1

  0
HATCH
  5
375
330
373
100
AcDbEntity
  8
Default
  6
Continuous
 62
     7
 48
25.4
100
AcDbHatch
 10
0.0
 20
0.0
 30
0.0
210
0.0
220
0.0
230
1.0
  2
SOLID
 70
     1
 71
     0
 91
        1
 92
        1
 93
        3
 72
     1
 10
518.0099772926069
 20
255.0214412858445
 11
516.6670203978217
 21
251.1950967136278
 72
     1
 10
516.6670203978217
 20
251.1950967136278
 11
519.17836164604
 21
254.3790582620106
 72
     1
 10
519.17836164604
 20
254.3790582620106
 11
518.0099772926069
 21
255.0214412858445
 97
        0
 75
     0
 76
     1
 98
        0
  0
LWPOLYLINE
  5
376
330
373
100
AcDbEntity
  8
Default
  6
Continuous
 62
     7
 48
25.4
370
    20
100
AcDbPolyline
 90
        4
 70
     1
 43
0.0
 10
518.0099772926
 20
255.0214412858
 10
516.6670203978
 20
251.1950967136
 10
519.178361646
 20
254.379058262
 10
518.0099772926
 20
255.0214412858
  0
HATCH
  5
377
330
373
100
AcDbEntity
  8
Default
  6
Continuous
 62
     7
 48
25.4
100
AcDbHatch
 10
0.0
 20
0.0
 30
0.0
210
0.0
220
0.0
230
1.0
  2
SOLID
 70
     1
 71
     0
 91
        1
 92
        1
 93
        3
 72
     1
 10
530.0670010752413
 20
295.0160150355785
 11
529.4840964764164
 21
299.0290772373456
 72
     1
 10
529.4840964764164
 20
299.0290772373456
 11
528.7339590314886
 21
295.0438871765957
 72
     1
 10
528.7339590314886
 20
295.0438871765957
 11
530.0670010752413
 21
295.0160150355785
 97
        0
 75
     0
 76
     1
 98
        0
  0
LWPOLYLINE
  5
378
330
373
100
AcDbEntity
  8
Default
  6
Continuous
 62
     7
 48
25.4
370
    20
100
AcDbPolyline
 90
        4
 70
     1
 43
0.0
 10
530.0670010752
 20
295.0160150356
 10
529.4840964764
 20
299.0290772373
 10
528.7339590315
 20
295.0438871766
 10
530.0670010752
 20
295.0160150356
  0
LINE
  5
379
330
373
100
AcDbEntity
  8
Default
  6
Continuous
 62
     7
 48
25.4
100
AcDbLine
 10
493.0051566283
 20
264.8562801305
 30
0.0
 11
518.3990682631
 21
250.1950984124
 31
0.0
  0
LINE
  5
37A
330
373
100
AcDbEntity
  8
Default
  6
Continuous
 62
     7
 48
25.4
100
AcDbLine
 10
500.3161388725
 20
299.0290758434
 30
0.0
 11
531.484093079
 21
299.0290758434
 31
0.0
  0
ARC
  5
37B
330
373
100
AcDbEntity
  8
Default
  6
Continuous
 62
     7
 48
25.4
100
AcDbCircle
 10
433.8161382168
 20
299.0290758434
 30
0.0
 40
95.6679582595817
100
AcDbArc
 50
330.0
 51
0.0000008348
  0
TEXT
  5
37C
330
373
100
AcDbEntity
  8
Default
  6
Continuous
 62
     7
 48
25.4
100
AcDbText
 10
524.1555698296
 20
270.4115213294
 30
0.0
 40
4.0
  1
30°
 50
75.0
  7
SEACAD_arial_ttf
 11
520.2918665245
 21
271.4467975098
 31
0.0
100
AcDbText
 73
     3
  0
ENDBLK
  5
37E
330
373
100
AcDbEntity
  8
0
100
AcDbBlockEnd
  0
BLOCK
  5
388
330
37F
100
AcDbEntity
  8
0
100
AcDbBlockBegin
  2
GDimGGroup11
 70
     0
 71
     0
 10
0.0
 20
0.0
 30
0.0
  3
GDimGGroup11
  1

  0
HATCH
  5
381
330
37F
100
AcDbEntity
  8
Default
  6
Continuous
 62
     7
 48
25.4
100
AcDbHatch
 10
0.0
 20
0.0
 30
0.0
210
0.0
220
0.0
230
1.0
  2
SOLID
 70
     1
 71
     0
 91
        1
 92
        1
 93
        3
 72
     1
 10
109.4645432098478
 20
372.4672218031377
 11
110.7978766065111
 21
372.4672218031377
 72
     1
 10
110.7978766065111
 20
372.4672218031377
 11
110.1312099081794
 21
376.4672219931275
 72
     1
 10
110.1312099081794
 20
376.4672219931275
 11
109.4645432098478
 21
372.4672218031377
 97
        0
 75
     0
 76
     1
 98
        0
  0
LWPOLYLINE
  5
382
330
37F
100
AcDbEntity
  8
Default
  6
Continuous
 62
     7
 48
25.4
370
    20
100
AcDbPolyline
 90
        4
 70
     1
 43
0.0
 10
109.4645432098
 20
372.4672218031
 10
110.1312099082
 20
376.4672219931
 10
110.7978766065
 20
372.4672218031
 10
109.4645432098
 20
372.4672218031
  0
LINE
  5
383
330
37F
100
AcDbEntity
  8
Default
  6
Continuous
 62
     7
 48
25.4
100
AcDbLine
 10
146.9638628942
 20
376.4672219931
 30
0.0
 11
108.1312098132
 21
376.4672219931
 31
0.0
  0
LINE
  5
384
330
37F
100
AcDbEntity
  8
Default
  6
Continuous
 62
     7
 48
25.4
100
AcDbLine
 10
110.1312099082
 20
376.4672219931
 30
0.0
 11
110.1312099082
 21
339.9040378808
 31
0.0
  0
TEXT
  5
385
330
37F
100
AcDbEntity
  8
Default
  6
Continuous
 62
     7
 48
25.4
100
AcDbText
 10
109.1312099082
 20
345.2157818014
 30
0.0
 40
4.0
  1
O
 50
90.0
  7
SEACAD_semeca1_ttf
 11
105.1312099082
 21
345.2157818014
 31
0.0
100
AcDbText
 73
     3
  0
TEXT
  5
386
330
37F
100
AcDbEntity
  8
Default
  6
Continuous
 62
     7
 48
25.4
100
AcDbText
 10
109.1312099082
 20
352.1771853101
 30
0.0
 40
4.0
  1
220
 50
90.0
  7
SEACAD_arial_ttf
 11
105.1312099082
 21
352.1771853101
 31
0.0
100
AcDbText
 73
     3
  0
TEXT
  5
387
330
37F
100
AcDbEntity
  8
Default
  6
Continuous
 62
     7
 48
25.4
100
AcDbText
 10
109.1312099082
 20
363.968489658
 30
0.0
 40
4.0
  1
H6
 50
90.0
  7
SEACAD_arial_ttf
 11
105.1312099082
 21
363.968489658
 31
0.0
100
AcDbText
 73
     3
  0
ENDBLK
  5
389
330
37F
100
AcDbEntity
  8
0
100
AcDbBlockEnd
  0
BLOCK
  5
393
330
38A
100
AcDbEntity
  8
0
100
AcDbBlockBegin
  2
GDimGGroup12
 70
     0
 71
     0
 10
0.0
 20
0.0
 30
0.0
  3
GDimGGroup12
  1

  0
HATCH
  5
38C
330
38A
100
AcDbEntity
  8
Default
  6
Continuous
 62
     7
 48
25.4
100
AcDbHatch
 10
0.0
 20
0.0
 30
0.0
210
0.0
220
0.0
230
1.0
  2
SOLID
 70
     1
 71
     0
 91
        1
 92
        1
 93
        3
 72
     1
 10
162.8638630842189
 20
216.8656318292458
 11
162.8638630842189
 21
218.1989652259091
 72
     1
 10
162.8638630842189
 20
218.1989652259091
 11
158.8638628942291
 21
217.5322985275775
 72
     1
 10
158.8638628942291
 20
217.5322985275775
 11
162.8638630842189
 21
216.8656318292458
 97
        0
 75
     0
 76
     1
 98
        0
  0
LWPOLYLINE
  5
38D
330
38A
100
AcDbEntity
  8
Default
  6
Continuous
 62
     7
 48
25.4
370
    20
100
AcDbPolyline
 90
        4
 70
     1
 43
0.0
 10
162.8638630842
 20
216.8656318292
 10
158.8638628942
 20
217.5322985276
 10
162.8638630842
 20
218.1989652259
 10
162.8638630842
 20
216.8656318292
  0
HATCH
  5
38E
330
38A
100
AcDbEntity
  8
Default
  6
Continuous
 62
     7
 48
25.4
100
AcDbHatch
 10
0.0
 20
0.0
 30
0.0
210
0.0
220
0.0
230
1.0
  2
SOLID
 70
     1
 71
     0
 91
        1
 92
        1
 93
        3
 72
     1
 10
151.3591416088761
 20
216.8656318292458
 11
155.3591417988659
 21
217.5322985275775
 72
     1
 10
155.3591417988659
 20
217.5322985275775
 11
151.3591416088761
 21
218.1989652259091
 72
     1
 10
151.3591416088761
 20
218.1989652259091
 11
151.3591416088761
 21
216.8656318292458
 97
        0
 75
     0
 76
     1
 98
        0
  0
LWPOLYLINE
  5
38F
330
38A
100
AcDbEntity
  8
Default
  6
Continuous
 62
     7
 48
25.4
370
    20
100
AcDbPolyline
 90
        4
 70
     1
 43
0.0
 10
151.3591416089
 20
216.8656318292
 10
155.3591417989
 20
217.5322985276
 10
151.3591416089
 20
218.1989652259
 10
151.3591416089
 20
216.8656318292
  0
LINE
  5
390
330
38A
100
AcDbEntity
  8
Default
  6
Continuous
 62
     7
 48
25.4
100
AcDbLine
 10
158.8638628942
 20
223.1672219931
 30
0.0
 11
158.8638628942
 21
215.5322984326
 31
0.0
  0
LINE
  5
391
330
38A
100
AcDbEntity
  8
Default
  6
Continuous
 62
     7
 48
25.4
100
AcDbLine
 10
167.8385230822
 20
217.5322985276
 30
0.0
 11
147.3591419977
 21
217.5322985276
 31
0.0
  0
TEXT
  5
392
330
38A
100
AcDbEntity
  8
Default
  6
Continuous
 62
     7
 48
25.4
100
AcDbText
 10
163.3080884026
 20
218.5322985276
 30
0.0
 40
4.0
  1
5
  7
SEACAD_arial_ttf
 11
163.3080884026
 21
222.5322985276
 31
0.0
100
AcDbText
 73
     3
  0
ENDBLK
  5
394
330
38A
100
AcDbEntity
  8
0
100
AcDbBlockEnd
  0
BLOCK
  5
3A0
330
395
100
AcDbEntity
  8
0
100
AcDbBlockBegin
  2
GDimGGroup13
 70
     0
 71
     0
 10
0.0
 20
0.0
 30
0.0
  3
GDimGGroup13
  1

  0
HATCH
  5
397
330
395
100
AcDbEntity
  8
Default
  6
Continuous
 62
     7
 48
25.4
100
AcDbHatch
 10
0.0
 20
0.0
 30
0.0
210
0.0
220
0.0
230
1.0
  2
SOLID
 70
     1
 71
     0
 91
        1
 92
        1
 93
        3
 72
     1
 10
148.7964872347204
 20
282.1461172684546
 11
149.463153933052
 21
278.1461170784648
 72
     1
 10
149.463153933052
 20
278.1461170784648
 11
150.1298206313836
 21
282.1461172684546
 72
     1
 10
150.1298206313836
 20
282.1461172684546
 11
148.7964872347204
 21
282.1461172684546
 97
        0
 75
     0
 76
     1
 98
        0
  0
LWPOLYLINE
  5
398
330
395
100
AcDbEntity
  8
Default
  6
Continuous
 62
     7
 48
25.4
370
    20
100
AcDbPolyline
 90
        4
 70
     1
 43
0.0
 10
148.7964872347
 20
282.1461172685
 10
149.4631539331
 20
278.1461170785
 10
150.1298206314
 20
282.1461172685
 10
148.7964872347
 20
282.1461172685
  0
HATCH
  5
399
330
395
100
AcDbEntity
  8
Default
  6
Continuous
 62
     7
 48
25.4
100
AcDbHatch
 10
0.0
 20
0.0
 30
0.0
210
0.0
220
0.0
230
1.0
  2
SOLID
 70
     1
 71
     0
 91
        1
 92
        1
 93
        3
 72
     1
 10
148.7964872347204
 20
316.8461169957633
 11
150.1298206313836
 21
316.8461169957633
 72
     1
 10
150.1298206313836
 20
316.8461169957633
 11
149.463153933052
 21
320.8461171857531
 72
     1
 10
149.463153933052
 20
320.8461171857531
 11
148.7964872347204
 21
316.8461169957633
 97
        0
 75
     0
 76
     1
 98
        0
  0
LWPOLYLINE
  5
39A
330
395
100
AcDbEntity
  8
Default
  6
Continuous
 62
     7
 48
25.4
370
    20
100
AcDbPolyline
 90
        4
 70
     1
 43
0.0
 10
148.7964872347
 20
316.8461169958
 10
149.4631539331
 20
320.8461171858
 10
150.1298206314
 20
316.8461169958
 10
148.7964872347
 20
316.8461169958
  0
LINE
  5
39B
330
395
100
AcDbEntity
  8
Default
  6
Continuous
 62
     7
 48
25.4
100
AcDbLine
 10
176.7001501516
 20
278.1461170785
 30
0.0
 11
147.4631538381
 21
278.1461170785
 31
0.0
  0
LINE
  5
39C
330
395
100
AcDbEntity
  8
Default
  6
Continuous
 62
     7
 48
25.4
100
AcDbLine
 10
174.2501501516
 20
320.8461170785
 30
0.0
 11
147.4631538381
 21
320.8461170785
 31
0.0
  0
LINE
  5
39D
330
395
100
AcDbEntity
  8
Default
  6
Continuous
 62
     7
 48
25.4
100
AcDbLine
 10
149.4631539331
 20
278.1461170785
 30
0.0
 11
149.4631539331
 21
320.8461171858
 31
0.0
  0
TEXT
  5
39E
330
395
100
AcDbEntity
  8
Default
  6
Continuous
 62
     7
 48
25.4
100
AcDbText
 10
148.4631539331
 20
300.0463841039
 30
0.0
 40
4.0
  1
61
 50
90.0
  7
SEACAD_arial_ttf
 11
144.4631539331
 21
300.0463841039
 31
0.0
100
AcDbText
 73
     3
  0
TEXT
  5
39F
330
395
100
AcDbEntity
  8
Default
  6
Continuous
 62
     7
 48
25.4
100
AcDbText
 10
148.4631539331
 20
292.6849805951
 30
0.0
 40
4.0
  1
O
 50
90.0
  7
SEACAD_semeca1_ttf
 11
144.4631539331
 21
292.6849805951
 31
0.0
100
AcDbText
 73
     3
  0
ENDBLK
  5
3A1
330
395
100
AcDbEntity
  8
0
100
AcDbBlockEnd
  0
BLOCK
  5
3AD
330
3A2
100
AcDbEntity
  8
0
100
AcDbBlockBegin
  2
GDimGGroup14
 70
     0
 71
     0
 10
0.0
 20
0.0
 30
0.0
  3
GDimGGroup14
  1

  0
HATCH
  5
3A4
330
3A2
100
AcDbEntity
  8
Default
  6
Continuous
 62
     7
 48
25.4
100
AcDbHatch
 10
0.0
 20
0.0
 30
0.0
210
0.0
220
0.0
230
1.0
  2
SOLID
 70
     1
 71
     0
 91
        1
 92
        1
 93
        3
 72
     1
 10
202.8035849763721
 20
291.5961172684546
 11
203.4702516747037
 21
287.5961170784648
 72
     1
 10
203.4702516747037
 20
287.5961170784648
 11
204.1369183730353
 21
291.5961172684546
 72
     1
 10
204.1369183730353
 20
291.5961172684546
 11
202.8035849763721
 21
291.5961172684546
 97
        0
 75
     0
 76
     1
 98
        0
  0
LWPOLYLINE
  5
3A5
330
3A2
100
AcDbEntity
  8
Default
  6
Continuous
 62
     7
 48
25.4
370
    20
100
AcDbPolyline
 90
        4
 70
     1
 43
0.0
 10
202.8035849764
 20
291.5961172685
 10
203.4702516747
 20
287.5961170785
 10
204.136918373
 20
291.5961172685
 10
202.8035849764
 20
291.5961172685
  0
HATCH
  5
3A6
330
3A2
100
AcDbEntity
  8
Default
  6
Continuous
 62
     7
 48
25.4
100
AcDbHatch
 10
0.0
 20
0.0
 30
0.0
210
0.0
220
0.0
230
1.0
  2
SOLID
 70
     1
 71
     0
 91
        1
 92
        1
 93
        3
 72
     1
 10
202.8035849763721
 20
307.3961174368377
 11
204.1369183730353
 21
307.3961174368377
 72
     1
 10
204.1369183730353
 20
307.3961174368377
 11
203.4702516747037
 21
311.3961176268275
 72
     1
 10
203.4702516747037
 20
311.3961176268275
 11
202.8035849763721
 21
307.3961174368377
 97
        0
 75
     0
 76
     1
 98
        0
  0
LWPOLYLINE
  5
3A7
330
3A2
100
AcDbEntity
  8
Default
  6
Continuous
 62
     7
 48
25.4
370
    20
100
AcDbPolyline
 90
        4
 70
     1
 43
0.0
 10
202.8035849764
 20
307.3961174368
 10
203.4702516747
 20
311.3961176268
 10
204.136918373
 20
307.3961174368
 10
202.8035849764
 20
307.3961174368
  0
LINE
  5
3A8
330
3A2
100
AcDbEntity
  8
Default
  6
Continuous
 62
     7
 48
25.4
100
AcDbLine
 10
217.6638628942
 20
287.5961170785
 30
0.0
 11
201.4702515797
 21
287.5961170785
 31
0.0
  0
LINE
  5
3A9
330
3A2
100
AcDbEntity
  8
Default
  6
Continuous
 62
     7
 48
25.4
100
AcDbLine
 10
217.6638628942
 20
311.3961170785
 30
0.0
 11
201.4702515797
 21
311.3961170785
 31
0.0
  0
LINE
  5
3AA
330
3A2
100
AcDbEntity
  8
Default
  6
Continuous
 62
     7
 48
25.4
100
AcDbLine
 10
203.4702516747
 20
287.5961170785
 30
0.0
 11
203.4702516747
 21
311.3961176268
 31
0.0
  0
TEXT
  5
3AB
330
3A2
100
AcDbEntity
  8
Default
  6
Continuous
 62
     7
 48
25.4
100
AcDbText
 10
202.4702516747
 20
300.0463843244
 30
0.0
 40
4.0
  1
34
 50
90.0
  7
SEACAD_arial_ttf
 11
198.4702516747
 21
300.0463843244
 31
0.0
100
AcDbText
 73
     3
  0
TEXT
  5
3AC
330
3A2
100
AcDbEntity
  8
Default
  6
Continuous
 62
     7
 48
25.4
100
AcDbText
 10
202.4702516747
 20
292.6849808157
 30
0.0
 40
4.0
  1
O
 50
90.0
  7
SEACAD_semeca1_ttf
 11
198.4702516747
 21
292.6849808157
 31
0.0
100
AcDbText
 73
     3
  0
ENDBLK
  5
3AE
330
3A2
100
AcDbEntity
  8
0
100
AcDbBlockEnd
  0
BLOCK
  5
3B9
330
3AF
100
AcDbEntity
  8
0
100
AcDbBlockBegin
  2
GDimGGroup15
 70
     0
 71
     0
 10
0.0
 20
0.0
 30
0.0
  3
GDimGGroup15
  1

  0
HATCH
  5
3B1
330
3AF
100
AcDbEntity
  8
Default
  6
Continuous
 62
     7
 48
25.4
100
AcDbHatch
 10
0.0
 20
0.0
 30
0.0
210
0.0
220
0.0
230
1.0
  2
SOLID
 70
     1
 71
     0
 91
        1
 92
        1
 93
        3
 72
     1
 10
221.6638630842189
 20
401.4026666608194
 11
217.6638628942291
 21
400.7359999624878
 72
     1
 10
217.6638628942291
 20
400.7359999624878
 11
221.6638630842189
 21
400.0693332641561
 72
     1
 10
221.6638630842189
 20
400.0693332641561
 11
221.6638630842189
 21
401.4026666608194
 97
        0
 75
     0
 76
     1
 98
        0
  0
LWPOLYLINE
  5
3B2
330
3AF
100
AcDbEntity
  8
Default
  6
Continuous
 62
     7
 48
25.4
370
    20
100
AcDbPolyline
 90
        4
 70
     1
 43
0.0
 10
221.6638630842
 20
401.4026666608
 10
217.6638628942
 20
400.7359999625
 10
221.6638630842
 20
400.0693332642
 10
221.6638630842
 20
401.4026666608
  0
HATCH
  5
3B3
330
3AF
100
AcDbEntity
  8
Default
  6
Continuous
 62
     7
 48
25.4
100
AcDbHatch
 10
0.0
 20
0.0
 30
0.0
210
0.0
220
0.0
230
1.0
  2
SOLID
 70
     1
 71
     0
 91
        1
 92
        1
 93
        3
 72
     1
 10
245.8638638844112
 20
401.4026666608194
 11
245.8638638844112
 21
400.0693332641561
 72
     1
 10
245.8638638844112
 20
400.0693332641561
 11
249.863864074401
 21
400.7359999624878
 72
     1
 10
249.863864074401
 20
400.7359999624878
 11
245.8638638844112
 21
401.4026666608194
 97
        0
 75
     0
 76
     1
 98
        0
  0
LWPOLYLINE
  5
3B4
330
3AF
100
AcDbEntity
  8
Default
  6
Continuous
 62
     7
 48
25.4
370
    20
100
AcDbPolyline
 90
        4
 70
     1
 43
0.0
 10
245.8638638844
 20
401.4026666608
 10
249.8638640744
 20
400.7359999625
 10
245.8638638844
 20
400.0693332642
 10
245.8638638844
 20
401.4026666608
  0
LINE
  5
3B5
330
3AF
100
AcDbEntity
  8
Default
  6
Continuous
 62
     7
 48
25.4
100
AcDbLine
 10
217.6638628942
 20
386.9952219931
 30
0.0
 11
217.6638628942
 21
402.7360000575
 31
0.0
  0
LINE
  5
3B6
330
3AF
100
AcDbEntity
  8
Default
  6
Continuous
 62
     7
 48
25.4
100
AcDbLine
 10
249.8638628942
 20
388.3672219931
 30
0.0
 11
249.8638628942
 21
402.7360000575
 31
0.0
  0
LINE
  5
3B7
330
3AF
100
AcDbEntity
  8
Default
  6
Continuous
 62
     7
 48
25.4
100
AcDbLine
 10
217.6638628942
 20
400.7359999625
 30
0.0
 11
249.8638640744
 21
400.7359999625
 31
0.0
  0
TEXT
  5
3B8
330
3AF
100
AcDbEntity
  8
Default
  6
Continuous
 62
     7
 48
25.4
100
AcDbText
 10
230.6334287017
 20
401.7359999625
 30
0.0
 40
4.0
  1
46
  7
SEACAD_arial_ttf
 11
230.6334287017
 21
405.7359999625
 31
0.0
100
AcDbText
 73
     3
  0
ENDBLK
  5
3BA
330
3AF
100
AcDbEntity
  8
0
100
AcDbBlockEnd
  0
BLOCK
  5
3C4
330
3BB
100
AcDbEntity
  8
0
100
AcDbBlockBegin
  2
GDimGGroup16
 70
     0
 71
     0
 10
0.0
 20
0.0
 30
0.0
  3
GDimGGroup16
  1

  0
HATCH
  5
3BD
330
3BB
100
AcDbEntity
  8
Default
  6
Continuous
 62
     7
 48
25.4
100
AcDbHatch
 10
0.0
 20
0.0
 30
0.0
210
0.0
220
0.0
230
1.0
  2
SOLID
 70
     1
 71
     0
 91
        1
 92
        1
 93
        3
 72
     1
 10
221.6638630842189
 20
218.2631932747105
 11
217.6638628942291
 21
217.5965265763789
 72
     1
 10
217.6638628942291
 20
217.5965265763789
 11
221.6638630842189
 21
216.9298598780473
 72
     1
 10
221.6638630842189
 20
216.9298598780473
 11
221.6638630842189
 21
218.2631932747105
 97
        0
 75
     0
 76
     1
 98
        0
  0
LWPOLYLINE
  5
3BE
330
3BB
100
AcDbEntity
  8
Default
  6
Continuous
 62
     7
 48
25.4
370
    20
100
AcDbPolyline
 90
        4
 70
     1
 43
0.0
 10
221.6638630842
 20
218.2631932747
 10
217.6638628942
 20
217.5965265764
 10
221.6638630842
 20
216.929859878
 10
221.6638630842
 20
218.2631932747
  0
HATCH
  5
3BF
330
3BB
100
AcDbEntity
  8
Default
  6
Continuous
 62
     7
 48
25.4
100
AcDbHatch
 10
0.0
 20
0.0
 30
0.0
210
0.0
220
0.0
230
1.0
  2
SOLID
 70
     1
 71
     0
 91
        1
 92
        1
 93
        3
 72
     1
 10
201.7638627042393
 20
218.2631932747105
 11
201.7638627042393
 21
216.9298598780473
 72
     1
 10
201.7638627042393
 20
216.9298598780473
 11
205.7638628942291
 21
217.5965265763789
 72
     1
 10
205.7638628942291
 20
217.5965265763789
 11
201.7638627042393
 21
218.2631932747105
 97
        0
 75
     0
 76
     1
 98
        0
  0
LWPOLYLINE
  5
3C0
330
3BB
100
AcDbEntity
  8
Default
  6
Continuous
 62
     7
 48
25.4
370
    20
100
AcDbPolyline
 90
        4
 70
     1
 43
0.0
 10
201.7638627042
 20
218.2631932747
 10
205.7638628942
 20
217.5965265764
 10
201.7638627042
 20
216.929859878
 10
201.7638627042
 20
218.2631932747
  0
LINE
  5
3C1
330
3BB
100
AcDbEntity
  8
Default
  6
Continuous
 62
     7
 48
25.4
100
AcDbLine
 10
205.7638628942
 20
230.674980031
 30
0.0
 11
205.7638628942
 21
215.5965264814
 31
0.0
  0
LINE
  5
3C2
330
3BB
100
AcDbEntity
  8
Default
  6
Continuous
 62
     7
 48
25.4
100
AcDbLine
 10
225.6638632742
 20
217.5965265764
 30
0.0
 11
197.7638631714
 21
217.5965265764
 31
0.0
  0
TEXT
  5
3C3
330
3BB
100
AcDbEntity
  8
Default
  6
Continuous
 62
     7
 48
25.4
100
AcDbText
 10
208.5834279745
 20
218.5965265764
 30
0.0
 40
4.0
  1
17
  7
SEACAD_arial_ttf
 11
208.5834279745
 21
222.5965265764
 31
0.0
100
AcDbText
 73
     3
  0
ENDBLK
  5
3C5
330
3BB
100
AcDbEntity
  8
0
100
AcDbBlockEnd
  0
BLOCK
  5
3D0
330
3C6
100
AcDbEntity
  8
0
100
AcDbBlockBegin
  2
GDimGGroup17
 70
     0
 71
     0
 10
0.0
 20
0.0
 30
0.0
  3
GDimGGroup17
  1

  0
HATCH
  5
3C8
330
3C6
100
AcDbEntity
  8
Default
  6
Continuous
 62
     7
 48
25.4
100
AcDbHatch
 10
0.0
 20
0.0
 30
0.0
210
0.0
220
0.0
230
1.0
  2
SOLID
 70
     1
 71
     0
 91
        1
 92
        1
 93
        3
 72
     1
 10
312.1792889218797
 20
315.3672221831172
 11
310.8459555252164
 21
315.3672221831172
 72
     1
 10
310.8459555252164
 20
315.3672221831172
 11
311.512622223548
 21
311.3672219931274
 72
     1
 10
311.512622223548
 20
311.3672219931274
 11
312.1792889218797
 21
315.3672221831172
 97
        0
 75
     0
 76
     1
 98
        0
  0
LWPOLYLINE
  5
3C9
330
3C6
100
AcDbEntity
  8
Default
  6
Continuous
 62
     7
 48
25.4
370
    20
100
AcDbPolyline
 90
        4
 70
     1
 43
0.0
 10
312.1792889219
 20
315.3672221831
 10
311.5126222235
 20
311.3672219931
 10
310.8459555252
 20
315.3672221831
 10
312.1792889219
 20
315.3672221831
  0
HATCH
  5
3CA
330
3C6
100
AcDbEntity
  8
Default
  6
Continuous
 62
     7
 48
25.4
100
AcDbHatch
 10
0.0
 20
0.0
 30
0.0
210
0.0
220
0.0
230
1.0
  2
SOLID
 70
     1
 71
     0
 91
        1
 92
        1
 93
        3
 72
     1
 10
312.1792889218797
 20
384.3672213859051
 11
311.512622223548
 21
388.3672215758949
 72
     1
 10
311.512622223548
 20
388.3672215758949
 11
310.8459555252164
 21
384.3672213859051
 72
     1
 10
310.8459555252164
 20
384.3672213859051
 11
312.1792889218797
 21
384.3672213859051
 97
        0
 75
     0
 76
     1
 98
        0
  0
LWPOLYLINE
  5
3CB
330
3C6
100
AcDbEntity
  8
Default
  6
Continuous
 62
     7
 48
25.4
370
    20
100
AcDbPolyline
 90
        4
 70
     1
 43
0.0
 10
312.1792889219
 20
384.3672213859
 10
311.5126222235
 20
388.3672215759
 10
310.8459555252
 20
384.3672213859
 10
312.1792889219
 20
384.3672213859
  0
LINE
  5
3CC
330
3C6
100
AcDbEntity
  8
Default
  6
Continuous
 62
     7
 48
25.4
100
AcDbLine
 10
249.8638622326
 20
311.3672219931
 30
0.0
 11
313.5126223185
 21
311.3672219931
 31
0.0
  0
LINE
  5
3CD
330
3C6
100
AcDbEntity
  8
Default
  6
Continuous
 62
     7
 48
25.4
100
AcDbLine
 10
249.8638628942
 20
388.3672219931
 30
0.0
 11
313.5126223185
 21
388.3672219931
 31
0.0
  0
LINE
  5
3CE
330
3C6
100
AcDbEntity
  8
Default
  6
Continuous
 62
     7
 48
25.4
100
AcDbLine
 10
311.5126222235
 20
311.3672219931
 30
0.0
 11
311.5126222235
 21
388.3672215759
 31
0.0
  0
TEXT
  5
3CF
330
3C6
100
AcDbEntity
  8
Default
  6
Continuous
 62
     7
 48
25.4
100
AcDbText
 10
310.5126222235
 20
345.1715696106
 30
0.0
 40
4.0
  1
110
 50
90.0
  7
SEACAD_arial_ttf
 11
306.5126222235
 21
345.1715696106
 31
0.0
100
AcDbText
 73
     3
  0
ENDBLK
  5
3D1
330
3C6
100
AcDbEntity
  8
0
100
AcDbBlockEnd
  0
BLOCK
  5
3DC
330
3D2
100
AcDbEntity
  8
0
100
AcDbBlockBegin
  2
GDimGGroup18
 70
     0
 71
     0
 10
0.0
 20
0.0
 30
0.0
  3
GDimGGroup18
  1

  0
HATCH
  5
3D4
330
3D2
100
AcDbEntity
  8
Default
  6
Continuous
 62
     7
 48
25.4
100
AcDbHatch
 10
0.0
 20
0.0
 30
0.0
210
0.0
220
0.0
230
1.0
  2
SOLID
 70
     1
 71
     0
 91
        1
 92
        1
 93
        3
 72
     1
 10
290.3651928644647
 20
384.3672218031376
 11
289.698526166133
 21
388.3672219931274
 72
     1
 10
289.698526166133
 20
388.3672219931274
 11
289.0318594678014
 21
384.3672218031376
 72
     1
 10
289.0318594678014
 20
384.3672218031376
 11
290.3651928644647
 21
384.3672218031376
 97
        0
 75
     0
 76
     1
 98
        0
  0
LWPOLYLINE
  5
3D5
330
3D2
100
AcDbEntity
  8
Default
  6
Continuous
 62
     7
 48
25.4
370
    20
100
AcDbPolyline
 90
        4
 70
     1
 43
0.0
 10
290.3651928645
 20
384.3672218031
 10
289.6985261661
 20
388.3672219931
 10
289.0318594678
 20
384.3672218031
 10
290.3651928645
 20
384.3672218031
  0
HATCH
  5
3D6
330
3D2
100
AcDbEntity
  8
Default
  6
Continuous
 62
     7
 48
25.4
100
AcDbHatch
 10
0.0
 20
0.0
 30
0.0
210
0.0
220
0.0
230
1.0
  2
SOLID
 70
     1
 71
     0
 91
        1
 92
        1
 93
        3
 72
     1
 10
290.3651928644647
 20
371.3672224662393
 11
289.0318594678014
 21
371.3672224662393
 72
     1
 10
289.0318594678014
 20
371.3672224662393
 11
289.698526166133
 21
367.3672222762495
 72
     1
 10
289.698526166133
 20
367.3672222762495
 11
290.3651928644647
 21
371.3672224662393
 97
        0
 75
     0
 76
     1
 98
        0
  0
LWPOLYLINE
  5
3D7
330
3D2
100
AcDbEntity
  8
Default
  6
Continuous
 62
     7
 48
25.4
370
    20
100
AcDbPolyline
 90
        4
 70
     1
 43
0.0
 10
290.3651928645
 20
371.3672224662
 10
289.6985261661
 20
367.3672222762
 10
289.0318594678
 20
371.3672224662
 10
290.3651928645
 20
371.3672224662
  0
LINE
  5
3D8
330
3D2
100
AcDbEntity
  8
Default
  6
Continuous
 62
     7
 48
25.4
100
AcDbLine
 10
249.8638628942
 20
388.3672219931
 30
0.0
 11
291.6985262611
 21
388.3672219931
 31
0.0
  0
LINE
  5
3D9
330
3D2
100
AcDbEntity
  8
Default
  6
Continuous
 62
     7
 48
25.4
100
AcDbLine
 10
253.013903988
 20
367.3672219931
 30
0.0
 11
291.6985262611
 21
367.3672219931
 31
0.0
  0
LINE
  5
3DA
330
3D2
100
AcDbEntity
  8
Default
  6
Continuous
 62
     7
 48
25.4
100
AcDbLine
 10
289.6985261661
 20
388.3672219931
 30
0.0
 11
289.6985261661
 21
367.3672222762
 31
0.0
  0
TEXT
  5
3DB
330
3D2
100
AcDbEntity
  8
Default
  6
Continuous
 62
     7
 48
25.4
100
AcDbText
 10
288.6985261661
 20
374.7367873521
 30
0.0
 40
4.0
  1
30
 50
90.0
  7
SEACAD_arial_ttf
 11
284.6985261661
 21
374.7367873521
 31
0.0
100
AcDbText
 73
     3
  0
ENDBLK
  5
3DD
330
3D2
100
AcDbEntity
  8
0
100
AcDbBlockEnd
  0
BLOCK
  5
3E8
330
3DE
100
AcDbEntity
  8
0
100
AcDbBlockBegin
  2
GDimGGroup19
 70
     0
 71
     0
 10
0.0
 20
0.0
 30
0.0
  3
GDimGGroup19
  1

  0
HATCH
  5
3E0
330
3DE
100
AcDbEntity
  8
Default
  6
Continuous
 62
     7
 48
25.4
100
AcDbHatch
 10
0.0
 20
0.0
 30
0.0
210
0.0
220
0.0
230
1.0
  2
SOLID
 70
     1
 71
     0
 91
        1
 92
        1
 93
        3
 72
     1
 10
290.3651955370411
 20
363.3672218031377
 11
289.6985288387094
 21
367.3672219931275
 72
     1
 10
289.6985288387094
 20
367.3672219931275
 11
289.0318621403778
 21
363.3672218031377
 72
     1
 10
289.0318621403778
 20
363.3672218031377
 11
290.3651955370411
 21
363.3672218031377
 97
        0
 75
     0
 76
     1
 98
        0
  0
LWPOLYLINE
  5
3E1
330
3DE
100
AcDbEntity
  8
Default
  6
Continuous
 62
     7
 48
25.4
370
    20
100
AcDbPolyline
 90
        4
 70
     1
 43
0.0
 10
290.365195537
 20
363.3672218031
 10
289.6985288387
 20
367.3672219931
 10
289.0318621404
 20
363.3672218031
 10
290.365195537
 20
363.3672218031
  0
HATCH
  5
3E2
330
3DE
100
AcDbEntity
  8
Default
  6
Continuous
 62
     7
 48
25.4
100
AcDbHatch
 10
0.0
 20
0.0
 30
0.0
210
0.0
220
0.0
230
1.0
  2
SOLID
 70
     1
 71
     0
 91
        1
 92
        1
 93
        3
 72
     1
 10
290.3651955370411
 20
350.3670641414017
 11
289.0318621403778
 21
350.3670641414017
 72
     1
 10
289.0318621403778
 20
350.3670641414017
 11
289.6985288387094
 21
346.3670639514119
 72
     1
 10
289.6985288387094
 20
346.3670639514119
 11
290.3651955370411
 21
350.3670641414017
 97
        0
 75
     0
 76
     1
 98
        0
  0
LWPOLYLINE
  5
3E3
330
3DE
100
AcDbEntity
  8
Default
  6
Continuous
 62
     7
 48
25.4
370
    20
100
AcDbPolyline
 90
        4
 70
     1
 43
0.0
 10
290.365195537
 20
350.3670641414
 10
289.6985288387
 20
346.3670639514
 10
289.0318621404
 20
350.3670641414
 10
290.365195537
 20
350.3670641414
  0
LINE
  5
3E4
330
3DE
100
AcDbEntity
  8
Default
  6
Continuous
 62
     7
 48
25.4
100
AcDbLine
 10
253.013903988
 20
367.3672219931
 30
0.0
 11
291.6985289337
 21
367.3672219931
 31
0.0
  0
LINE
  5
3E5
330
3DE
100
AcDbEntity
  8
Default
  6
Continuous
 62
     7
 48
25.4
100
AcDbLine
 10
253.2593943876
 20
346.3670645097
 30
0.0
 11
291.6985289337
 21
346.3670645097
 31
0.0
  0
LINE
  5
3E6
330
3DE
100
AcDbEntity
  8
Default
  6
Continuous
 62
     7
 48
25.4
100
AcDbLine
 10
289.6985288387
 20
367.3672219931
 30
0.0
 11
289.6985288387
 21
346.3670639514
 31
0.0
  0
TEXT
  5
3E7
330
3DE
100
AcDbEntity
  8
Default
  6
Continuous
 62
     7
 48
25.4
100
AcDbText
 10
288.6985288387
 20
353.7367081897
 30
0.0
 40
4.0
  1
30
 50
90.0
  7
SEACAD_arial_ttf
 11
284.6985288387
 21
353.7367081897
 31
0.0
100
AcDbText
 73
     3
  0
ENDBLK
  5
3E9
330
3DE
100
AcDbEntity
  8
0
100
AcDbBlockEnd
  0
BLOCK
  5
3F6
330
3EA
100
AcDbEntity
  8
0
100
AcDbBlockBegin
  2
GDimGGroup20
 70
     0
 71
     0
 10
0.0
 20
0.0
 30
0.0
  3
GDimGGroup20
  1

  0
HATCH
  5
3EC
330
3EA
100
AcDbEntity
  8
Default
  6
Continuous
 62
     7
 48
25.4
100
AcDbHatch
 10
0.0
 20
0.0
 30
0.0
210
0.0
220
0.0
230
1.0
  2
SOLID
 70
     1
 71
     0
 91
        1
 92
        1
 93
        3
 72
     1
 10
266.4043112547342
 20
303.4961172684546
 11
265.0709778580709
 21
303.4961172684546
 72
     1
 10
265.0709778580709
 20
303.4961172684546
 11
265.7376445564026
 21
299.4961170784648
 72
     1
 10
265.7376445564026
 20
299.4961170784648
 11
266.4043112547342
 21
303.4961172684546
 97
        0
 75
     0
 76
     1
 98
        0
  0
LWPOLYLINE
  5
3ED
330
3EA
100
AcDbEntity
  8
Default
  6
Continuous
 62
     7
 48
25.4
370
    20
100
AcDbPolyline
 90
        4
 70
     1
 43
0.0
 10
266.4043112547
 20
303.4961172685
 10
265.7376445564
 20
299.4961170785
 10
265.0709778581
 20
303.4961172685
 10
266.4043112547
 20
303.4961172685
  0
HATCH
  5
3EE
330
3EA
100
AcDbEntity
  8
Default
  6
Continuous
 62
     7
 48
25.4
100
AcDbHatch
 10
0.0
 20
0.0
 30
0.0
210
0.0
220
0.0
230
1.0
  2
SOLID
 70
     1
 71
     0
 91
        1
 92
        1
 93
        3
 72
     1
 10
266.4043112547342
 20
331.2661159157271
 11
265.7376445564026
 21
335.266116105717
 72
     1
 10
265.7376445564026
 20
335.266116105717
 11
265.0709778580709
 21
331.2661159157271
 72
     1
 10
265.0709778580709
 20
331.2661159157271
 11
266.4043112547342
 21
331.2661159157271
 97
        0
 75
     0
 76
     1
 98
        0
  0
LWPOLYLINE
  5
3EF
330
3EA
100
AcDbEntity
  8
Default
  6
Continuous
 62
     7
 48
25.4
370
    20
100
AcDbPolyline
 90
        4
 70
     1
 43
0.0
 10
266.4043112547
 20
331.2661159157
 10
265.7376445564
 20
335.2661161057
 10
265.0709778581
 20
331.2661159157
 10
266.4043112547
 20
331.2661159157
  0
LINE
  5
3F0
330
3EA
100
AcDbEntity
  8
Default
  6
Continuous
 62
     7
 48
25.4
100
AcDbLine
 10
255.7796371835
 20
299.4961170785
 30
0.0
 11
267.7376446514
 21
299.4961170785
 31
0.0
  0
LINE
  5
3F1
330
3EA
100
AcDbEntity
  8
Default
  6
Continuous
 62
     7
 48
25.4
100
AcDbLine
 10
215.9138628942
 20
335.2661170785
 30
0.0
 11
267.7376446514
 21
335.2661170785
 31
0.0
  0
LINE
  5
3F2
330
3EA
100
AcDbEntity
  8
Default
  6
Continuous
 62
     7
 48
25.4
100
AcDbLine
 10
265.7376445564
 20
269.8183292828
 30
0.0
 11
265.7376445564
 21
335.2661161057
 31
0.0
  0
TEXT
  5
3F3
330
3EA
100
AcDbEntity
  8
Default
  6
Continuous
 62
     7
 48
25.4
100
AcDbText
 10
258.7376445564
 20
285.9313719368
 30
0.0
 40
4.0
  1
51.1
 50
90.0
  7
SEACAD_arial_ttf
 11
254.7376445564
 21
285.9313719368
 31
0.0
100
AcDbText
 73
     3
  0
TEXT
  5
3F4
330
3EA
100
AcDbEntity
  8
Default
  6
Continuous
 62
     7
 48
25.4
100
AcDbText
 10
258.7376445564
 20
271.2183284586
 30
0.0
 40
4.0
  1
MAX
 50
90.0
  7
SEACAD_arial_ttf
 11
254.7376445564
 21
271.2183284586
 31
0.0
100
AcDbText
 73
     3
  0
TEXT
  5
3F5
330
3EA
100
AcDbEntity
  8
Default
  6
Continuous
 62
     7
 48
25.4
100
AcDbText
 10
264.7376445564
 20
271.2183284586
 30
0.0
 40
4.0
  1
MIN 46.7
 50
90.0
  7
SEACAD_arial_ttf
 11
260.7376445564
 21
271.2183284586
 31
0.0
100
AcDbText
 73
     3
  0
ENDBLK
  5
3F7
330
3EA
100
AcDbEntity
  8
0
100
AcDbBlockEnd
  0
BLOCK
  5
404
330
3F8
100
AcDbEntity
  8
0
100
AcDbBlockBegin
  2
GDimGGroup21
 70
     0
 71
     0
 10
0.0
 20
0.0
 30
0.0
  3
GDimGGroup21
  1

  0
HATCH
  5
3FA
330
3F8
100
AcDbEntity
  8
Default
  6
Continuous
 62
     7
 48
25.4
100
AcDbHatch
 10
0.0
 20
0.0
 30
0.0
210
0.0
220
0.0
230
1.0
  2
SOLID
 70
     1
 71
     0
 91
        1
 92
        1
 93
        3
 72
     1
 10
290.4043094139566
 20
331.266116888475
 11
289.737642715625
 21
335.2661170784648
 72
     1
 10
289.737642715625
 20
335.2661170784648
 11
289.0709760172933
 21
331.266116888475
 72
     1
 10
289.0709760172933
 20
331.266116888475
 11
290.4043094139566
 21
331.266116888475
 97
        0
 75
     0
 76
     1
 98
        0
  0
LWPOLYLINE
  5
3FB
330
3F8
100
AcDbEntity
  8
Default
  6
Continuous
 62
     7
 48
25.4
370
    20
100
AcDbPolyline
 90
        4
 70
     1
 43
0.0
 10
290.404309414
 20
331.2661168885
 10
289.7376427156
 20
335.2661170785
 10
289.0709760173
 20
331.2661168885
 10
290.404309414
 20
331.2661168885
  0
HATCH
  5
3FC
330
3F8
100
AcDbEntity
  8
Default
  6
Continuous
 62
     7
 48
25.4
100
AcDbHatch
 10
0.0
 20
0.0
 30
0.0
210
0.0
220
0.0
230
1.0
  2
SOLID
 70
     1
 71
     0
 91
        1
 92
        1
 93
        3
 72
     1
 10
290.4043094139566
 20
350.367064699707
 11
289.0709760172933
 21
350.367064699707
 72
     1
 10
289.0709760172933
 20
350.367064699707
 11
289.737642715625
 21
346.3670645097172
 72
     1
 10
289.737642715625
 20
346.3670645097172
 11
290.4043094139566
 21
350.367064699707
 97
        0
 75
     0
 76
     1
 98
        0
  0
LWPOLYLINE
  5
3FD
330
3F8
100
AcDbEntity
  8
Default
  6
Continuous
 62
     7
 48
25.4
370
    20
100
AcDbPolyline
 90
        4
 70
     1
 43
0.0
 10
290.404309414
 20
350.3670646997
 10
289.7376427156
 20
346.3670645097
 10
289.0709760173
 20
350.3670646997
 10
290.404309414
 20
350.3670646997
  0
LINE
  5
3FE
330
3F8
100
AcDbEntity
  8
Default
  6
Continuous
 62
     7
 48
25.4
100
AcDbLine
 10
215.9138628942
 20
335.2661170785
 30
0.0
 11
291.7376428106
 21
335.2661170785
 31
0.0
  0
LINE
  5
3FF
330
3F8
100
AcDbEntity
  8
Default
  6
Continuous
 62
     7
 48
25.4
100
AcDbLine
 10
253.2593943876
 20
346.3670645097
 30
0.0
 11
291.7376428106
 21
346.3670645097
 31
0.0
  0
LINE
  5
400
330
3F8
100
AcDbEntity
  8
Default
  6
Continuous
 62
     7
 48
25.4
100
AcDbLine
 10
289.7376427156
 20
278.633955938
 30
0.0
 11
289.7376427156
 21
354.367064384
 31
0.0
  0
TEXT
  5
401
330
3F8
100
AcDbEntity
  8
Default
  6
Continuous
 62
     7
 48
25.4
100
AcDbText
 10
282.7376427156
 20
294.7469978904
 30
0.0
 40
4.0
  1
30.75
 50
90.0
  7
SEACAD_arial_ttf
 11
278.7376427156
 21
294.7469978904
 31
0.0
100
AcDbText
 73
     3
  0
TEXT
  5
402
330
3F8
100
AcDbEntity
  8
Default
  6
Continuous
 62
     7
 48
25.4
100
AcDbText
 10
282.7376427156
 20
280.0339544121
 30
0.0
 40
4.0
  1
MAX
 50
90.0
  7
SEACAD_arial_ttf
 11
278.7376427156
 21
280.0339544121
 31
0.0
100
AcDbText
 73
     3
  0
TEXT
  5
403
330
3F8
100
AcDbEntity
  8
Default
  6
Continuous
 62
     7
 48
25.4
100
AcDbText
 10
288.7376427156
 20
280.0339544121
 30
0.0
 40
4.0
  1
MIN 11.25
 50
90.0
  7
SEACAD_arial_ttf
 11
284.7376427156
 21
280.0339544121
 31
0.0
100
AcDbText
 73
     3
  0
ENDBLK
  5
405
330
3F8
100
AcDbEntity
  8
0
100
AcDbBlockEnd
  0
BLOCK
  5
40E
330
406
100
AcDbEntity
  8
0
100
AcDbBlockBegin
  2
GDimGGroup22
 70
     0
 71
     0
 10
0.0
 20
0.0
 30
0.0
  3
GDimGGroup22
  1

  0
HATCH
  5
408
330
406
100
AcDbEntity
  8
Default
  6
Continuous
 62
     7
 48
25.4
100
AcDbHatch
 10
0.0
 20
0.0
 30
0.0
210
0.0
220
0.0
230
1.0
  2
SOLID
 70
     1
 71
     0
 91
        1
 92
        1
 93
        3
 72
     1
 10
87.003271027582
 20
384.3952218031376
 11
88.33660442424528
 21
384.3952218031376
 72
     1
 10
88.33660442424528
 20
384.3952218031376
 11
87.66993772591364
 21
388.3952219931275
 72
     1
 10
87.66993772591364
 20
388.3952219931275
 11
87.003271027582
 21
384.3952218031376
 97
        0
 75
     0
 76
     1
 98
        0
  0
LWPOLYLINE
  5
409
330
406
100
AcDbEntity
  8
Default
  6
Continuous
 62
     7
 48
25.4
370
    20
100
AcDbPolyline
 90
        4
 70
     1
 43
0.0
 10
87.0032710276
 20
384.3952218031
 10
87.6699377259
 20
388.3952219931
 10
88.3366044242
 20
384.3952218031
 10
87.0032710276
 20
384.3952218031
  0
LINE
  5
40A
330
406
100
AcDbEntity
  8
Default
  6
Continuous
 62
     7
 48
25.4
100
AcDbLine
 10
156.7591417989
 20
388.3952219931
 30
0.0
 11
85.6699376309
 21
388.3952219931
 31
0.0
  0
LINE
  5
40B
330
406
100
AcDbEntity
  8
Default
  6
Continuous
 62
     7
 48
25.4
100
AcDbLine
 10
87.6699377259
 20
388.3952219931
 30
0.0
 11
87.6699377259
 21
358.8187043516
 31
0.0
  0
TEXT
  5
40C
330
406
100
AcDbEntity
  8
Default
  6
Continuous
 62
     7
 48
25.4
100
AcDbText
 10
86.6699377259
 20
363.340309742
 30
0.0
 40
4.0
  1
O
 50
90.0
  7
SEACAD_semeca1_ttf
 11
82.6699377259
 21
363.340309742
 31
0.0
100
AcDbText
 73
     3
  0
TEXT
  5
40D
330
406
100
AcDbEntity
  8
Default
  6
Continuous
 62
     7
 48
25.4
100
AcDbText
 10
86.6699377259
 20
370.3017132508
 30
0.0
 40
4.0
  1
254
 50
90.0
  7
SEACAD_arial_ttf
 11
82.6699377259
 21
370.3017132508
 31
0.0
100
AcDbText
 73
     3
  0
ENDBLK
  5
40F
330
406
100
AcDbEntity
  8
0
100
AcDbBlockEnd
  0
BLOCK
  5
41A
330
410
100
AcDbEntity
  8
0
100
AcDbBlockBegin
  2
GDimGGroup23
 70
     0
 71
     0
 10
0.0
 20
0.0
 30
0.0
  3
GDimGGroup23
  1

  0
HATCH
  5
412
330
410
100
AcDbEntity
  8
Default
  6
Continuous
 62
     7
 48
25.4
100
AcDbHatch
 10
0.0
 20
0.0
 30
0.0
210
0.0
220
0.0
230
1.0
  2
SOLID
 70
     1
 71
     0
 91
        1
 92
        1
 93
        3
 72
     1
 10
69.76386308421884
 20
270.7678832166657
 11
69.76386308421884
 21
272.101216613329
 72
     1
 10
69.76386308421884
 20
272.101216613329
 11
65.76386289422904
 21
271.4345499149973
 72
     1
 10
65.76386289422904
 20
271.4345499149973
 11
69.76386308421884
 21
270.7678832166657
 97
        0
 75
     0
 76
     1
 98
        0
  0
LWPOLYLINE
  5
413
330
410
100
AcDbEntity
  8
Default
  6
Continuous
 62
     7
 48
25.4
370
    20
100
AcDbPolyline
 90
        4
 70
     1
 43
0.0
 10
69.7638630842
 20
270.7678832167
 10
65.7638628942
 20
271.434549915
 10
69.7638630842
 20
272.1012166133
 10
69.7638630842
 20
270.7678832167
  0
HATCH
  5
414
330
410
100
AcDbEntity
  8
Default
  6
Continuous
 62
     7
 48
25.4
100
AcDbHatch
 10
0.0
 20
0.0
 30
0.0
210
0.0
220
0.0
230
1.0
  2
SOLID
 70
     1
 71
     0
 91
        1
 92
        1
 93
        3
 72
     1
 10
79.26386277874504
 20
270.7678832166657
 11
83.26386296873484
 21
271.4345499149973
 72
     1
 10
83.26386296873484
 20
271.4345499149973
 11
79.26386277874504
 21
272.101216613329
 72
     1
 10
79.26386277874504
 20
272.101216613329
 11
79.26386277874504
 21
270.7678832166657
 97
        0
 75
     0
 76
     1
 98
        0
  0
LWPOLYLINE
  5
415
330
410
100
AcDbEntity
  8
Default
  6
Continuous
 62
     7
 48
25.4
370
    20
100
AcDbPolyline
 90
        4
 70
     1
 43
0.0
 10
79.2638627787
 20
270.7678832167
 10
83.2638629687
 20
271.434549915
 10
79.2638627787
 20
272.1012166133
 10
79.2638627787
 20
270.7678832167
  0
LINE
  5
416
330
410
100
AcDbEntity
  8
Default
  6
Continuous
 62
     7
 48
25.4
100
AcDbLine
 10
65.7638628942
 20
284.796116615
 30
0.0
 11
65.7638628942
 21
269.43454982
 31
0.0
  0
LINE
  5
417
330
410
100
AcDbEntity
  8
Default
  6
Continuous
 62
     7
 48
25.4
100
AcDbLine
 10
83.2638628942
 20
290.9686116449
 30
0.0
 11
83.2638628942
 21
269.43454982
 31
0.0
  0
LINE
  5
418
330
410
100
AcDbEntity
  8
Default
  6
Continuous
 62
     7
 48
25.4
100
AcDbLine
 10
65.7638628942
 20
271.434549915
 30
0.0
 11
83.2638629687
 21
271.434549915
 31
0.0
  0
TEXT
  5
419
330
410
100
AcDbEntity
  8
Default
  6
Continuous
 62
     7
 48
25.4
100
AcDbText
 10
71.3834281489
 20
272.434549915
 30
0.0
 40
4.0
  1
25
  7
SEACAD_arial_ttf
 11
71.3834281489
 21
276.434549915
 31
0.0
100
AcDbText
 73
     3
  0
ENDBLK
  5
41B
330
410
100
AcDbEntity
  8
0
100
AcDbBlockEnd
  0
BLOCK
  5
425
330
41C
100
AcDbEntity
  8
0
100
AcDbBlockBegin
  2
GDimGGroup24
 70
     0
 71
     0
 10
0.0
 20
0.0
 30
0.0
  3
GDimGGroup24
  1

  0
LINE
  5
41E
330
41C
100
AcDbEntity
  8
Default
  6
Continuous
 62
     7
 48
25.4
100
AcDbLine
 10
433.8161382168
 20
299.0290758434
 30
0.0
 11
500.1090469236
 21
304.2731527306
 31
0.0
  0
HATCH
  5
41F
330
41C
100
AcDbEntity
  8
Default
  6
Continuous
 62
     7
 48
25.4
100
AcDbHatch
 10
0.0
 20
0.0
 30
0.0
210
0.0
220
0.0
230
1.0
  2
SOLID
 70
     1
 71
     0
 91
        1
 92
        1
 93
        3
 72
     1
 10
496.0689305376994
 20
304.62231005925
 11
496.1740749403963
 21
303.2931288822695
 72
     1
 10
496.1740749403963
 20
303.2931288822695
 11
500.1090462699892
 21
304.2731526788506
 72
     1
 10
500.1090462699892
 20
304.2731526788506
 11
496.0689305376994
 21
304.62231005925
 97
        0
 75
     0
 76
     1
 98
        0
  0
LWPOLYLINE
  5
420
330
41C
100
AcDbEntity
  8
Default
  6
Continuous
 62
     7
 48
25.4
370
    20
100
AcDbPolyline
 90
        4
 70
     1
 43
0.0
 10
496.0689305377
 20
304.6223100592
 10
500.10904627
 20
304.2731526789
 10
496.1740749404
 20
303.2931288823
 10
496.0689305377
 20
304.6223100592
  0
ARC
  5
421
330
41C
100
AcDbEntity
  8
Default
  6
Continuous
 62
     7
 48
25.4
100
AcDbCircle
 10
433.8161382168
 20
299.0290758434
 30
0.0
 40
66.50000000003803
100
AcDbArc
 50
2.4126321151
 51
6.2461250488
  0
TEXT
  5
422
330
41C
100
AcDbEntity
  8
Default
  6
Continuous
 62
     7
 48
25.4
100
AcDbText
 10
448.8276701995
 20
301.2196816171
 30
0.0
 40
4.0
  1
R
 50
4.5229437101
  7
SEACAD_arial_ttf
 11
448.5122370064
 21
305.2072249586
 31
0.0
100
AcDbText
 73
     3
  0
TEXT
  5
423
330
41C
100
AcDbEntity
  8
Default
  6
Continuous
 62
     7
 48
25.4
100
AcDbText
 10
455.2077395459
 20
301.7243747261
 30
0.0
 40
4.0
  1
95
 50
4.5229437101
  7
SEACAD_arial_ttf
 11
454.8923063528
 21
305.7119180676
 31
0.0
100
AcDbText
 73
     3
  0
TEXT
  5
424
330
41C
100
AcDbEntity
  8
Default
  6
Continuous
 62
     7
 48
25.4
100
AcDbText
 10
463.4428834035
 20
302.3758128423
 30
0.0
 40
4.0
  1
±0.2
 50
4.5229437101
  7
SEACAD_arial_ttf
 11
463.1274502104
 21
306.3633561838
 31
0.0
100
AcDbText
 73
     3
  0
ENDBLK
  5
426
330
41C
100
AcDbEntity
  8
0
100
AcDbBlockEnd
  0
BLOCK
  5
431
330
427
100
AcDbEntity
  8
0
100
AcDbBlockBegin
  2
GDimGGroup25
 70
     0
 71
     0
 10
0.0
 20
0.0
 30
0.0
  3
GDimGGroup25
  1

  0
HATCH
  5
429
330
427
100
AcDbEntity
  8
Default
  6
Continuous
 62
     7
 48
25.4
100
AcDbHatch
 10
0.0
 20
0.0
 30
0.0
210
0.0
220
0.0
230
1.0
  2
SOLID
 70
     1
 71
     0
 91
        1
 92
        1
 93
        3
 72
     1
 10
150.2638630842189
 20
187.4412008173242
 11
150.2638630842189
 21
188.7745342139875
 72
     1
 10
150.2638630842189
 20
188.7745342139875
 11
146.2638628942291
 21
188.1078675156559
 72
     1
 10
146.2638628942291
 20
188.1078675156559
 11
150.2638630842189
 21
187.4412008173242
 97
        0
 75
     0
 76
     1
 98
        0
  0
LWPOLYLINE
  5
42A
330
427
100
AcDbEntity
  8
Default
  6
Continuous
 62
     7
 48
25.4
370
    20
100
AcDbPolyline
 90
        4
 70
     1
 43
0.0
 10
150.2638630842
 20
187.4412008173
 10
146.2638628942
 20
188.1078675157
 10
150.2638630842
 20
188.774534214
 10
150.2638630842
 20
187.4412008173
  0
HATCH
  5
42B
330
427
100
AcDbEntity
  8
Default
  6
Continuous
 62
     7
 48
25.4
100
AcDbHatch
 10
0.0
 20
0.0
 30
0.0
210
0.0
220
0.0
230
1.0
  2
SOLID
 70
     1
 71
     0
 91
        1
 92
        1
 93
        3
 72
     1
 10
213.6638643493275
 20
187.4412008173242
 11
217.6638645393173
 21
188.1078675156559
 72
     1
 10
217.6638645393173
 20
188.1078675156559
 11
213.6638643493275
 21
188.7745342139875
 72
     1
 10
213.6638643493275
 20
188.7745342139875
 11
213.6638643493275
 21
187.4412008173242
 97
        0
 75
     0
 76
     1
 98
        0
  0
LWPOLYLINE
  5
42C
330
427
100
AcDbEntity
  8
Default
  6
Continuous
 62
     7
 48
25.4
370
    20
100
AcDbPolyline
 90
        4
 70
     1
 43
0.0
 10
213.6638643493
 20
187.4412008173
 10
217.6638645393
 20
188.1078675157
 10
213.6638643493
 20
188.774534214
 10
213.6638643493
 20
187.4412008173
  0
LINE
  5
42D
330
427
100
AcDbEntity
  8
Default
  6
Continuous
 62
     7
 48
25.4
100
AcDbLine
 10
146.2638628942
 20
228.5222232109
 30
0.0
 11
146.2638628942
 21
186.1078674207
 31
0.0
  0
LINE
  5
42E
330
427
100
AcDbEntity
  8
Default
  6
Continuous
 62
     7
 48
25.4
100
AcDbLine
 10
217.6638628942
 20
211.9952219931
 30
0.0
 11
217.6638628942
 21
186.1078674207
 31
0.0
  0
LINE
  5
42F
330
427
100
AcDbEntity
  8
Default
  6
Continuous
 62
     7
 48
25.4
100
AcDbLine
 10
146.2638628942
 20
188.1078675157
 30
0.0
 11
217.6638645393
 21
188.1078675157
 31
0.0
  0
TEXT
  5
430
330
427
100
AcDbEntity
  8
Default
  6
Continuous
 62
     7
 48
25.4
100
AcDbText
 10
177.2682115429
 20
189.1078675157
 30
0.0
 40
4.0
  1
102
  7
SEACAD_arial_ttf
 11
177.2682115429
 21
193.1078675157
 31
0.0
100
AcDbText
 73
     3
  0
ENDBLK
  5
432
330
427
100
AcDbEntity
  8
0
100
AcDbBlockEnd
  0
BLOCK
  5
43D
330
433
100
AcDbEntity
  8
0
100
AcDbBlockBegin
  2
GDimGGroup26
 70
     0
 71
     0
 10
0.0
 20
0.0
 30
0.0
  3
GDimGGroup26
  1

  0
HATCH
  5
435
330
433
100
AcDbEntity
  8
Default
  6
Continuous
 62
     7
 48
25.4
100
AcDbHatch
 10
0.0
 20
0.0
 30
0.0
210
0.0
220
0.0
230
1.0
  2
SOLID
 70
     1
 71
     0
 91
        1
 92
        1
 93
        3
 72
     1
 10
142.2638627042393
 20
187.4412008173242
 11
146.2638628942291
 21
188.1078675156559
 72
     1
 10
146.2638628942291
 20
188.1078675156559
 11
142.2638627042393
 21
188.7745342139875
 72
     1
 10
142.2638627042393
 20
188.7745342139875
 11
142.2638627042393
 21
187.4412008173242
 97
        0
 75
     0
 76
     1
 98
        0
  0
LWPOLYLINE
  5
436
330
433
100
AcDbEntity
  8
Default
  6
Continuous
 62
     7
 48
25.4
370
    20
100
AcDbPolyline
 90
        4
 70
     1
 43
0.0
 10
142.2638627042
 20
187.4412008173
 10
146.2638628942
 20
188.1078675157
 10
142.2638627042
 20
188.774534214
 10
142.2638627042
 20
187.4412008173
  0
HATCH
  5
437
330
433
100
AcDbEntity
  8
Default
  6
Continuous
 62
     7
 48
25.4
100
AcDbHatch
 10
0.0
 20
0.0
 30
0.0
210
0.0
220
0.0
230
1.0
  2
SOLID
 70
     1
 71
     0
 91
        1
 92
        1
 93
        3
 72
     1
 10
132.7638630097131
 20
187.4412008173242
 11
132.7638630097131
 21
188.7745342139875
 72
     1
 10
132.7638630097131
 20
188.7745342139875
 11
128.7638628197233
 21
188.1078675156559
 72
     1
 10
128.7638628197233
 20
188.1078675156559
 11
132.7638630097131
 21
187.4412008173242
 97
        0
 75
     0
 76
     1
 98
        0
  0
LWPOLYLINE
  5
438
330
433
100
AcDbEntity
  8
Default
  6
Continuous
 62
     7
 48
25.4
370
    20
100
AcDbPolyline
 90
        4
 70
     1
 43
0.0
 10
132.7638630097
 20
187.4412008173
 10
128.7638628197
 20
188.1078675157
 10
132.7638630097
 20
188.774534214
 10
132.7638630097
 20
187.4412008173
  0
LINE
  5
439
330
433
100
AcDbEntity
  8
Default
  6
Continuous
 62
     7
 48
25.4
100
AcDbLine
 10
146.2638628942
 20
228.5222232109
 30
0.0
 11
146.2638628942
 21
186.1078674207
 31
0.0
  0
LINE
  5
43A
330
433
100
AcDbEntity
  8
Default
  6
Continuous
 62
     7
 48
25.4
100
AcDbLine
 10
128.7638628942
 20
233.8772244287
 30
0.0
 11
128.7638628942
 21
186.1078674207
 31
0.0
  0
LINE
  5
43B
330
433
100
AcDbEntity
  8
Default
  6
Continuous
 62
     7
 48
25.4
100
AcDbLine
 10
146.2638628942
 20
188.1078675157
 30
0.0
 11
128.7638628197
 21
188.1078675157
 31
0.0
  0
TEXT
  5
43C
330
433
100
AcDbEntity
  8
Default
  6
Continuous
 62
     7
 48
25.4
100
AcDbText
 10
134.3834280744
 20
189.1078675157
 30
0.0
 40
4.0
  1
25
  7
SEACAD_arial_ttf
 11
134.3834280744
 21
193.1078675157
 31
0.0
100
AcDbText
 73
     3
  0
ENDBLK
  5
43E
330
433
100
AcDbEntity
  8
0
100
AcDbBlockEnd
  0
BLOCK
  5
449
330
43F
100
AcDbEntity
  8
0
100
AcDbBlockBegin
  2
GDimGGroup27
 70
     0
 71
     0
 10
0.0
 20
0.0
 30
0.0
  3
GDimGGroup27
  1

  0
HATCH
  5
441
330
43F
100
AcDbEntity
  8
Default
  6
Continuous
 62
     7
 48
25.4
100
AcDbHatch
 10
0.0
 20
0.0
 30
0.0
210
0.0
220
0.0
230
1.0
  2
SOLID
 70
     1
 71
     0
 91
        1
 92
        1
 93
        3
 72
     1
 10
154.8638627042393
 20
198.9767644918934
 11
158.8638628942291
 21
199.643431190225
 72
     1
 10
158.8638628942291
 20
199.643431190225
 11
154.8638627042393
 21
200.3100978885566
 72
     1
 10
154.8638627042393
 20
200.3100978885566
 11
154.8638627042393
 21
198.9767644918934
 97
        0
 75
     0
 76
     1
 98
        0
  0
LWPOLYLINE
  5
442
330
43F
100
AcDbEntity
  8
Default
  6
Continuous
 62
     7
 48
25.4
370
    20
100
AcDbPolyline
 90
        4
 70
     1
 43
0.0
 10
154.8638627042
 20
198.9767644919
 10
158.8638628942
 20
199.6434311902
 10
154.8638627042
 20
200.3100978886
 10
154.8638627042
 20
198.9767644919
  0
HATCH
  5
443
330
43F
100
AcDbEntity
  8
Default
  6
Continuous
 62
     7
 48
25.4
100
AcDbHatch
 10
0.0
 20
0.0
 30
0.0
210
0.0
220
0.0
230
1.0
  2
SOLID
 70
     1
 71
     0
 91
        1
 92
        1
 93
        3
 72
     1
 10
150.2638630678276
 20
198.9767644918934
 11
150.2638630678276
 21
200.3100978885566
 72
     1
 10
150.2638630678276
 20
200.3100978885566
 11
146.2638628778378
 21
199.643431190225
 72
     1
 10
146.2638628778378
 20
199.643431190225
 11
150.2638630678276
 21
198.9767644918934
 97
        0
 75
     0
 76
     1
 98
        0
  0
LWPOLYLINE
  5
444
330
43F
100
AcDbEntity
  8
Default
  6
Continuous
 62
     7
 48
25.4
370
    20
100
AcDbPolyline
 90
        4
 70
     1
 43
0.0
 10
150.2638630678
 20
198.9767644919
 10
146.2638628778
 20
199.6434311902
 10
150.2638630678
 20
200.3100978886
 10
150.2638630678
 20
198.9767644919
  0
LINE
  5
445
330
43F
100
AcDbEntity
  8
Default
  6
Continuous
 62
     7
 48
25.4
100
AcDbLine
 10
158.8638628942
 20
228.3472232109
 30
0.0
 11
158.8638628942
 21
197.6434310952
 31
0.0
  0
LINE
  5
446
330
43F
100
AcDbEntity
  8
Default
  6
Continuous
 62
     7
 48
25.4
100
AcDbLine
 10
146.2638628942
 20
228.5222232109
 30
0.0
 11
146.2638628942
 21
197.6434310952
 31
0.0
  0
LINE
  5
447
330
43F
100
AcDbEntity
  8
Default
  6
Continuous
 62
     7
 48
25.4
100
AcDbLine
 10
158.8638628942
 20
199.6434311902
 30
0.0
 11
146.2638628778
 21
199.6434311902
 31
0.0
  0
TEXT
  5
448
330
43F
100
AcDbEntity
  8
Default
  6
Continuous
 62
     7
 48
25.4
100
AcDbText
 10
149.4334281034
 20
200.6434311902
 30
0.0
 40
4.0
  1
18
  7
SEACAD_arial_ttf
 11
149.4334281034
 21
204.6434311902
 31
0.0
100
AcDbText
 73
     3
  0
ENDBLK
  5
44A
330
43F
100
AcDbEntity
  8
0
100
AcDbBlockEnd
  0
BLOCK
  5
453
330
44B
100
AcDbEntity
  8
0
100
AcDbBlockBegin
  2
GDimGGroup28
 70
     0
 71
     0
 10
0.0
 20
0.0
 30
0.0
  3
GDimGGroup28
  1

  0
HATCH
  5
44D
330
44B
100
AcDbEntity
  8
Default
  6
Continuous
 62
     7
 48
25.4
100
AcDbHatch
 10
0.0
 20
0.0
 30
0.0
210
0.0
220
0.0
230
1.0
  2
SOLID
 70
     1
 71
     0
 91
        1
 92
        1
 93
        3
 72
     1
 10
130.4043159006804
 20
344.397766888475
 11
131.7376492973437
 21
344.397766888475
 72
     1
 10
131.7376492973437
 20
344.397766888475
 11
131.070982599012
 21
348.3977670784648
 72
     1
 10
131.070982599012
 20
348.3977670784648
 11
130.4043159006804
 21
344.397766888475
 97
        0
 75
     0
 76
     1
 98
        0
  0
LWPOLYLINE
  5
44E
330
44B
100
AcDbEntity
  8
Default
  6
Continuous
 62
     7
 48
25.4
370
    20
100
AcDbPolyline
 90
        4
 70
     1
 43
0.0
 10
130.4043159007
 20
344.3977668885
 10
131.070982599
 20
348.3977670785
 10
131.7376492973
 20
344.3977668885
 10
130.4043159007
 20
344.3977668885
  0
LINE
  5
44F
330
44B
100
AcDbEntity
  8
Default
  6
Continuous
 62
     7
 48
25.4
100
AcDbLine
 10
146.2638628942
 20
348.3977670785
 30
0.0
 11
129.070982504
 21
348.3977670785
 31
0.0
  0
LINE
  5
450
330
44B
100
AcDbEntity
  8
Default
  6
Continuous
 62
     7
 48
25.4
100
AcDbLine
 10
131.070982599
 20
348.3977670785
 30
0.0
 11
131.070982599
 21
299.4961160238
 31
0.0
  0
TEXT
  5
451
330
44B
100
AcDbEntity
  8
Default
  6
Continuous
 62
     7
 48
25.4
100
AcDbText
 10
130.070982599
 20
305.6940835913
 30
0.0
 40
4.0
  1
O
 50
90.0
  7
SEACAD_semeca1_ttf
 11
126.070982599
 21
305.6940835913
 31
0.0
100
AcDbText
 73
     3
  0
TEXT
  5
452
330
44B
100
AcDbEntity
  8
Default
  6
Continuous
 62
     7
 48
25.4
100
AcDbText
 10
130.070982599
 20
312.6554871
 30
0.0
 40
4.0
  1
139.719
 50
90.0
  7
SEACAD_arial_ttf
 11
126.070982599
 21
312.6554871
 31
0.0
100
AcDbText
 73
     3
  0
ENDBLK
  5
454
330
44B
100
AcDbEntity
  8
0
100
AcDbBlockEnd
  0
BLOCK
  5
461
330
455
100
AcDbEntity
  8
0
100
AcDbBlockBegin
  2
GDimGGroup29
 70
     0
 71
     0
 10
0.0
 20
0.0
 30
0.0
  3
GDimGGroup29
  1

  0
HATCH
  5
457
330
455
100
AcDbEntity
  8
Default
  6
Continuous
 62
     7
 48
25.4
100
AcDbHatch
 10
0.0
 20
0.0
 30
0.0
210
0.0
220
0.0
230
1.0
  2
SOLID
 70
     1
 71
     0
 91
        1
 92
        1
 93
        3
 72
     1
 10
131.5424870898317
 20
354.288659226042
 11
131.1834339818967
 21
350.249410920693
 72
     1
 10
131.1834339818966
 20
350.249410920693
 11
132.8331052911376
 21
353.9538718231794
 72
     1
 10
132.8331052911376
 20
353.9538718231794
 11
131.5424870898317
 21
354.288659226042
 97
        0
 75
     0
 76
     1
 98
        0
  0
LWPOLYLINE
  5
458
330
455
100
AcDbEntity
  8
Default
  6
Continuous
 62
     7
 48
25.4
370
    20
100
AcDbPolyline
 90
        4
 70
     1
 43
0.0
 10
131.5424870898
 20
354.288659226
 10
131.1834339819
 20
350.2494109207
 10
132.8331052911
 20
353.9538718232
 10
131.5424870898
 20
354.288659226
  0
HATCH
  5
459
330
455
100
AcDbEntity
  8
Default
  6
Continuous
 62
     7
 48
25.4
100
AcDbHatch
 10
0.0
 20
0.0
 30
0.0
210
0.0
220
0.0
230
1.0
  2
SOLID
 70
     1
 71
     0
 91
        1
 92
        1
 93
        3
 72
     1
 10
132.2560973087702
 20
344.5198743139193
 11
131.0701825929205
 21
348.3977670784648
 72
     1
 10
131.0701825929205
 20
348.3977670784648
 11
130.9342988599528
 21
344.3448691501056
 72
     1
 10
130.9342988599528
 20
344.3448691501056
 11
132.2560973087702
 21
344.5198743139193
 97
        0
 75
     0
 76
     1
 98
        0
  0
LWPOLYLINE
  5
45A
330
455
100
AcDbEntity
  8
Default
  6
Continuous
 62
     7
 48
25.4
370
    20
100
AcDbPolyline
 90
        4
 70
     1
 43
0.0
 10
132.2560973088
 20
344.5198743139
 10
131.0701825929
 20
348.3977670785
 10
130.93429886
 20
344.3448691501
 10
132.2560973088
 20
344.5198743139
  0
LINE
  5
45B
330
455
100
AcDbEntity
  8
Default
  6
Continuous
 62
     7
 48
25.4
100
AcDbLine
 10
155.3638624478
 20
347.2804276291
 30
0.0
 11
129.1983413532
 21
350.4931496475
 31
0.0
  0
LINE
  5
45C
330
455
100
AcDbEntity
  8
Default
  6
Continuous
 62
     7
 48
25.4
100
AcDbLine
 10
146.2638628942
 20
348.3977670785
 30
0.0
 11
129.0701822651
 21
348.3977670785
 31
0.0
  0
ARC
  5
45D
330
455
100
AcDbEntity
  8
Default
  6
Continuous
 62
     7
 48
25.4
100
AcDbCircle
 10
146.2638628942
 20
348.3977670785
 30
0.0
 40
15.19368030130866
100
AcDbArc
 50
142.8317818512
 51
180.0000000525
  0
ARC
  5
45E
330
455
100
AcDbEntity
  8
Default
  6
Continuous
 62
     7
 48
25.4
100
AcDbCircle
 10
146.2638628942
 20
348.3977670785
 30
0.0
 40
15.1936803013081
100
AcDbArc
 50
180.0
 51
210.1682181488
  0
TEXT
  5
45F
330
455
100
AcDbEntity
  8
Default
  6
Continuous
 62
     7
 48
25.4
100
AcDbText
 10
129.4707908285
 20
339.0925600373
 30
0.0
 40
4.0
  1
7°
 50
86.5
  7
SEACAD_arial_ttf
 11
125.4782516348
 21
339.3367541954
 31
0.0
100
AcDbText
 73
     3
  0
TEXT
  5
460
330
455
100
AcDbEntity
  8
Default
  6
Continuous
 62
     7
 48
25.4
100
AcDbText
 10
129.9708579958
 20
347.2685859513
 30
0.0
 40
4.0
  1
7'30"
 50
86.5
  7
SEACAD_arial_ttf
 11
125.9783188021
 21
347.5127801094
 31
0.0
100
AcDbText
 73
     3
  0
ENDBLK
  5
462
330
455
100
AcDbEntity
  8
0
100
AcDbBlockEnd
  0
BLOCK
  5
46D
330
463
100
AcDbEntity
  8
0
100
AcDbBlockBegin
  2
GDimGGroup30
 70
     0
 71
     0
 10
0.0
 20
0.0
 30
0.0
  3
GDimGGroup30
  1

  0
HATCH
  5
465
330
463
100
AcDbEntity
  8
Default
  6
Continuous
 62
     7
 48
25.4
100
AcDbHatch
 10
0.0
 20
0.0
 30
0.0
210
0.0
220
0.0
230
1.0
  2
SOLID
 70
     1
 71
     0
 91
        1
 92
        1
 93
        3
 72
     1
 10
61.76386270423925
 20
252.934084790276
 11
65.76386289422905
 21
253.6007514886077
 72
     1
 10
65.76386289422906
 20
253.6007514886077
 11
61.76386270423926
 21
254.2674181869393
 72
     1
 10
61.76386270423925
 20
254.2674181869393
 11
61.76386270423925
 21
252.934084790276
 97
        0
 75
     0
 76
     1
 98
        0
  0
LWPOLYLINE
  5
466
330
463
100
AcDbEntity
  8
Default
  6
Continuous
 62
     7
 48
25.4
370
    20
100
AcDbPolyline
 90
        4
 70
     1
 43
0.0
 10
61.7638627042
 20
252.9340847903
 10
65.7638628942
 20
253.6007514886
 10
61.7638627042
 20
254.2674181869
 10
61.7638627042
 20
252.9340847903
  0
HATCH
  5
467
330
463
100
AcDbEntity
  8
Default
  6
Continuous
 62
     7
 48
25.4
100
AcDbHatch
 10
0.0
 20
0.0
 30
0.0
210
0.0
220
0.0
230
1.0
  2
SOLID
 70
     1
 71
     0
 91
        1
 92
        1
 93
        3
 72
     1
 10
44.56386305143631
 20
252.934084790276
 11
44.56386305143631
 21
254.2674181869393
 72
     1
 10
44.56386305143631
 20
254.2674181869393
 11
40.5638628614465
 21
253.6007514886077
 72
     1
 10
40.5638628614465
 20
253.6007514886077
 11
44.56386305143631
 21
252.934084790276
 97
        0
 75
     0
 76
     1
 98
        0
  0
LWPOLYLINE
  5
468
330
463
100
AcDbEntity
  8
Default
  6
Continuous
 62
     7
 48
25.4
370
    20
100
AcDbPolyline
 90
        4
 70
     1
 43
0.0
 10
44.5638630514
 20
252.9340847903
 10
40.5638628614
 20
253.6007514886
 10
44.5638630514
 20
254.2674181869
 10
44.5638630514
 20
252.9340847903
  0
LINE
  5
469
330
463
100
AcDbEntity
  8
Default
  6
Continuous
 62
     7
 48
25.4
100
AcDbLine
 10
65.7638628942
 20
288.9086170785
 30
0.0
 11
65.7638628942
 21
251.6007513936
 31
0.0
  0
LINE
  5
46A
330
463
100
AcDbEntity
  8
Default
  6
Continuous
 62
     7
 48
25.4
100
AcDbLine
 10
40.5638628942
 20
293.5461169414
 30
0.0
 11
40.5638628942
 21
251.6007513936
 31
0.0
  0
LINE
  5
46B
330
463
100
AcDbEntity
  8
Default
  6
Continuous
 62
     7
 48
25.4
100
AcDbLine
 10
65.7638628942
 20
253.6007514886
 30
0.0
 11
40.5638628614
 21
253.6007514886
 31
0.0
  0
TEXT
  5
46C
330
463
100
AcDbEntity
  8
Default
  6
Continuous
 62
     7
 48
25.4
100
AcDbText
 10
50.0334280952
 20
254.6007514886
 30
0.0
 40
4.0
  1
36
  7
SEACAD_arial_ttf
 11
50.0334280952
 21
258.6007514886
 31
0.0
100
AcDbText
 73
     3
  0
ENDBLK
  5
46E
330
463
100
AcDbEntity
  8
0
100
AcDbBlockEnd
  0
BLOCK
  5
47A
330
46F
100
AcDbEntity
  8
0
100
AcDbBlockBegin
  2
GDimGGroup31
 70
     0
 71
     0
 10
0.0
 20
0.0
 30
0.0
  3
GDimGGroup31
  1

  0
HATCH
  5
471
330
46F
100
AcDbEntity
  8
Default
  6
Continuous
 62
     7
 48
25.4
100
AcDbHatch
 10
0.0
 20
0.0
 30
0.0
210
0.0
220
0.0
230
1.0
  2
SOLID
 70
     1
 71
     0
 91
        1
 92
        1
 93
        3
 72
     1
 10
142.2638627042393
 20
252.817432757543
 11
146.2638628942291
 21
253.4840994558747
 72
     1
 10
146.2638628942291
 20
253.4840994558747
 11
142.2638627042393
 21
254.1507661542063
 72
     1
 10
142.2638627042393
 20
254.1507661542063
 11
142.2638627042393
 21
252.817432757543
 97
        0
 75
     0
 76
     1
 98
        0
  0
LWPOLYLINE
  5
472
330
46F
100
AcDbEntity
  8
Default
  6
Continuous
 62
     7
 48
25.4
370
    20
100
AcDbPolyline
 90
        4
 70
     1
 43
0.0
 10
142.2638627042
 20
252.8174327575
 10
146.2638628942
 20
253.4840994559
 10
142.2638627042
 20
254.1507661542
 10
142.2638627042
 20
252.8174327575
  0
HATCH
  5
473
330
46F
100
AcDbEntity
  8
Default
  6
Continuous
 62
     7
 48
25.4
100
AcDbHatch
 10
0.0
 20
0.0
 30
0.0
210
0.0
220
0.0
230
1.0
  2
SOLID
 70
     1
 71
     0
 91
        1
 92
        1
 93
        3
 72
     1
 10
69.76386385907928
 20
252.817432757543
 11
69.76386385907928
 21
254.1507661542063
 72
     1
 10
69.76386385907928
 20
254.1507661542063
 11
65.76386366908947
 21
253.4840994558747
 72
     1
 10
65.76386366908947
 20
253.4840994558747
 11
69.76386385907928
 21
252.817432757543
 97
        0
 75
     0
 76
     1
 98
        0
  0
LWPOLYLINE
  5
474
330
46F
100
AcDbEntity
  8
Default
  6
Continuous
 62
     7
 48
25.4
370
    20
100
AcDbPolyline
 90
        4
 70
     1
 43
0.0
 10
69.7638638591
 20
252.8174327575
 10
65.7638636691
 20
253.4840994559
 10
69.7638638591
 20
254.1507661542
 10
69.7638638591
 20
252.8174327575
  0
LINE
  5
475
330
46F
100
AcDbEntity
  8
Default
  6
Continuous
 62
     7
 48
25.4
100
AcDbLine
 10
65.7638628942
 20
284.7961170785
 30
0.0
 11
65.7638628942
 21
251.4840993609
 31
0.0
  0
LINE
  5
476
330
46F
100
AcDbEntity
  8
Default
  6
Continuous
 62
     7
 48
25.4
100
AcDbLine
 10
146.2638628942
 20
253.4840994559
 30
0.0
 11
65.7638636691
 21
253.4840994559
 31
0.0
  0
TEXT
  5
477
330
46F
100
AcDbEntity
  8
Default
  6
Continuous
 62
     7
 48
25.4
100
AcDbText
 10
107.8051676295
 20
260.4840994559
 30
0.0
 40
4.0
  1
115
  7
SEACAD_arial_ttf
 11
107.8051676295
 21
264.4840994559
 31
0.0
100
AcDbText
 73
     3
  0
TEXT
  5
478
330
46F
100
AcDbEntity
  8
Default
  6
Continuous
 62
     7
 48
25.4
100
AcDbText
 10
94.831254586
 20
260.4840994559
 30
0.0
 40
4.0
  1
MIN
  7
SEACAD_arial_ttf
 11
94.831254586
 21
264.4840994559
 31
0.0
100
AcDbText
 73
     3
  0
TEXT
  5
479
330
46F
100
AcDbEntity
  8
Default
  6
Continuous
 62
     7
 48
25.4
100
AcDbText
 10
94.831254586
 20
254.4840994559
 30
0.0
 40
4.0
  1
MAX 140
  7
SEACAD_arial_ttf
 11
94.831254586
 21
258.4840994559
 31
0.0
100
AcDbText
 73
     3
  0
ENDBLK
  5
47B
330
46F
100
AcDbEntity
  8
0
100
AcDbBlockEnd
  0
BLOCK
  5
485
330
47C
100
AcDbEntity
  8
0
100
AcDbBlockBegin
  2
GDimGGroup32
 70
     0
 71
     0
 10
0.0
 20
0.0
 30
0.0
  3
GDimGGroup32
  1

  0
HATCH
  5
47E
330
47C
100
AcDbEntity
  8
Default
  6
Continuous
 62
     7
 48
25.4
100
AcDbHatch
 10
0.0
 20
0.0
 30
0.0
210
0.0
220
0.0
230
1.0
  2
SOLID
 70
     1
 71
     0
 91
        1
 92
        1
 93
        3
 72
     1
 10
168.3254984049767
 20
311.2461168884749
 11
169.65883180164
 21
311.2461168884749
 72
     1
 10
169.65883180164
 20
311.2461168884749
 11
168.9921651033083
 21
315.2461170784648
 72
     1
 10
168.9921651033083
 20
315.2461170784648
 11
168.3254984049767
 21
311.2461168884749
 97
        0
 75
     0
 76
     1
 98
        0
  0
LWPOLYLINE
  5
47F
330
47C
100
AcDbEntity
  8
Default
  6
Continuous
 62
     7
 48
25.4
370
    20
100
AcDbPolyline
 90
        4
 70
     1
 43
0.0
 10
168.325498405
 20
311.2461168885
 10
168.9921651033
 20
315.2461170785
 10
169.6588318016
 20
311.2461168885
 10
168.325498405
 20
311.2461168885
  0
HATCH
  5
480
330
47C
100
AcDbEntity
  8
Default
  6
Continuous
 62
     7
 48
25.4
100
AcDbHatch
 10
0.0
 20
0.0
 30
0.0
210
0.0
220
0.0
230
1.0
  2
SOLID
 70
     1
 71
     0
 91
        1
 92
        1
 93
        3
 72
     1
 10
168.3254984049767
 20
287.7461167618151
 11
168.9921651033083
 21
283.7461165718253
 72
     1
 10
168.9921651033083
 20
283.7461165718253
 11
169.65883180164
 21
287.7461167618151
 72
     1
 10
169.65883180164
 20
287.7461167618151
 11
168.3254984049767
 21
287.7461167618151
 97
        0
 75
     0
 76
     1
 98
        0
  0
LWPOLYLINE
  5
481
330
47C
100
AcDbEntity
  8
Default
  6
Continuous
 62
     7
 48
25.4
370
    20
100
AcDbPolyline
 90
        4
 70
     1
 43
0.0
 10
168.325498405
 20
287.7461167618
 10
168.9921651033
 20
283.7461165718
 10
169.6588318016
 20
287.7461167618
 10
168.325498405
 20
287.7461167618
  0
LINE
  5
482
330
47C
100
AcDbEntity
  8
Default
  6
Continuous
 62
     7
 48
25.4
100
AcDbLine
 10
168.9921651033
 20
315.2461170785
 30
0.0
 11
168.9921651033
 21
283.7461165718
 31
0.0
  0
TEXT
  5
483
330
47C
100
AcDbEntity
  8
Default
  6
Continuous
 62
     7
 48
25.4
100
AcDbText
 10
167.9921651033
 20
300.0463837969
 30
0.0
 40
4.0
  1
45
 50
90.0
  7
SEACAD_arial_ttf
 11
163.9921651033
 21
300.0463837969
 31
0.0
100
AcDbText
 73
     3
  0
TEXT
  5
484
330
47C
100
AcDbEntity
  8
Default
  6
Continuous
 62
     7
 48
25.4
100
AcDbText
 10
167.9921651033
 20
292.6849802882
 30
0.0
 40
4.0
  1
O
 50
90.0
  7
SEACAD_semeca1_ttf
 11
163.9921651033
 21
292.6849802882
 31
0.0
100
AcDbText
 73
     3
  0
ENDBLK
  5
486
330
47C
100
AcDbEntity
  8
0
100
AcDbBlockEnd
  0
ENDSEC
  0
SECTION
  2
ENTITIES
  0
INSERT
  5
2C
330
1F
100
AcDbEntity
  8
Default
100
AcDbBlockReference
  2
SEANNOT_GROUP
 10
0.0
 20
0.0
 30
0.0
  0
INSERT
  5
37
330
1F
100
AcDbEntity
  8
Default
100
AcDbBlockReference
  2
SEANNOT_GROUP1
 10
0.0
 20
0.0
 30
0.0
  0
INSERT
  5
40
330
1F
100
AcDbEntity
  8
Default
100
AcDbBlockReference
  2
SEANNOT_GROUP2
 10
0.0
 20
0.0
 30
0.0
  0
INSERT
  5
49
330
1F
100
AcDbEntity
  8
Default
100
AcDbBlockReference
  2
SEANNOT_GROUP3
 10
0.0
 20
0.0
 30
0.0
  0
INSERT
  5
52
330
1F
100
AcDbEntity
  8
Default
100
AcDbBlockReference
  2
SE
 10
0.0
 20
0.0
 30
0.0
  0
INSERT
  5
1A3
330
1F
100
AcDbEntity
  8
Default
100
AcDbBlockReference
  2
SE1
 10
0.0
 20
0.0
 30
0.0
  0
INSERT
  5
260
330
1F
100
AcDbEntity
  8
Default
100
AcDbBlockReference
  2
SE2
 10
0.0
 20
0.0
 30
0.0
  0
INSERT
  5
2FC
330
1F
100
AcDbEntity
  8
Default
100
AcDbBlockReference
  2
GDimGGroup
 10
0.0
 20
0.0
 30
0.0
  0
INSERT
  5
308
330
1F
100
AcDbEntity
  8
Default
100
AcDbBlockReference
  2
GDimGGroup1
 10
0.0
 20
0.0
 30
0.0
  0
INSERT
  5
314
330
1F
100
AcDbEntity
  8
Default
100
AcDbBlockReference
  2
GDimGGroup2
 10
0.0
 20
0.0
 30
0.0
  0
INSERT
  5
322
330
1F
100
AcDbEntity
  8
Default
100
AcDbBlockReference
  2
GDimGGroup3
 10
0.0
 20
0.0
 30
0.0
  0
INSERT
  5
32E
330
1F
100
AcDbEntity
  8
Default
100
AcDbBlockReference
  2
GDimGGroup4
 10
0.0
 20
0.0
 30
0.0
  0
INSERT
  5
33A
330
1F
100
AcDbEntity
  8
Default
100
AcDbBlockReference
  2
GDimGGroup5
 10
0.0
 20
0.0
 30
0.0
  0
INSERT
  5
347
330
1F
100
AcDbEntity
  8
Default
100
AcDbBlockReference
  2
GDimGGroup6
 10
0.0
 20
0.0
 30
0.0
  0
INSERT
  5
350
330
1F
100
AcDbEntity
  8
Default
100
AcDbBlockReference
  2
GDimGGroup7
 10
0.0
 20
0.0
 30
0.0
  0
INSERT
  5
35C
330
1F
100
AcDbEntity
  8
Default
100
AcDbBlockReference
  2
GDimGGroup8
 10
0.0
 20
0.0
 30
0.0
  0
INSERT
  5
368
330
1F
100
AcDbEntity
  8
Default
100
AcDbBlockReference
  2
GDimGGroup9
 10
0.0
 20
0.0
 30
0.0
  0
INSERT
  5
374
330
1F
100
AcDbEntity
  8
Default
100
AcDbBlockReference
  2
GDimGGroup10
 10
0.0
 20
0.0
 30
0.0
  0
INSERT
  5
380
330
1F
100
AcDbEntity
  8
Default
100
AcDbBlockReference
  2
GDimGGroup11
 10
0.0
 20
0.0
 30
0.0
  0
INSERT
  5
38B
330
1F
100
AcDbEntity
  8
Default
100
AcDbBlockReference
  2
GDimGGroup12
 10
0.0
 20
0.0
 30
0.0
  0
INSERT
  5
396
330
1F
100
AcDbEntity
  8
Default
100
AcDbBlockReference
  2
GDimGGroup13
 10
0.0
 20
0.0
 30
0.0
  0
INSERT
  5
3A3
330
1F
100
AcDbEntity
  8
Default
100
AcDbBlockReference
  2
GDimGGroup14
 10
0.0
 20
0.0
 30
0.0
  0
INSERT
  5
3B0
330
1F
100
AcDbEntity
  8
Default
100
AcDbBlockReference
  2
GDimGGroup15
 10
0.0
 20
0.0
 30
0.0
  0
INSERT
  5
3BC
330
1F
100
AcDbEntity
  8
Default
100
AcDbBlockReference
  2
GDimGGroup16
 10
0.0
 20
0.0
 30
0.0
  0
INSERT
  5
3C7
330
1F
100
AcDbEntity
  8
Default
100
AcDbBlockReference
  2
GDimGGroup17
 10
0.0
 20
0.0
 30
0.0
  0
INSERT
  5
3D3
330
1F
100
AcDbEntity
  8
Default
100
AcDbBlockReference
  2
GDimGGroup18
 10
0.0
 20
0.0
 30
0.0
  0
INSERT
  5
3DF
330
1F
100
AcDbEntity
  8
Default
100
AcDbBlockReference
  2
GDimGGroup19
 10
0.0
 20
0.0
 30
0.0
  0
INSERT
  5
3EB
330
1F
100
AcDbEntity
  8
Default
100
AcDbBlockReference
  2
GDimGGroup20
 10
0.0
 20
0.0
 30
0.0
  0
INSERT
  5
3F9
330
1F
100
AcDbEntity
  8
Default
100
AcDbBlockReference
  2
GDimGGroup21
 10
0.0
 20
0.0
 30
0.0
  0
INSERT
  5
407
330
1F
100
AcDbEntity
  8
Default
100
AcDbBlockReference
  2
GDimGGroup22
 10
0.0
 20
0.0
 30
0.0
  0
INSERT
  5
411
330
1F
100
AcDbEntity
  8
Default
100
AcDbBlockReference
  2
GDimGGroup23
 10
0.0
 20
0.0
 30
0.0
  0
INSERT
  5
41D
330
1F
100
AcDbEntity
  8
Default
100
AcDbBlockReference
  2
GDimGGroup24
 10
0.0
 20
0.0
 30
0.0
  0
INSERT
  5
428
330
1F
100
AcDbEntity
  8
Default
100
AcDbBlockReference
  2
GDimGGroup25
 10
0.0
 20
0.0
 30
0.0
  0
INSERT
  5
434
330
1F
100
AcDbEntity
  8
Default
100
AcDbBlockReference
  2
GDimGGroup26
 10
0.0
 20
0.0
 30
0.0
  0
INSERT
  5
440
330
1F
100
AcDbEntity
  8
Default
100
AcDbBlockReference
  2
GDimGGroup27
 10
0.0
 20
0.0
 30
0.0
  0
INSERT
  5
44C
330
1F
100
AcDbEntity
  8
Default
100
AcDbBlockReference
  2
GDimGGroup28
 10
0.0
 20
0.0
 30
0.0
  0
INSERT
  5
456
330
1F
100
AcDbEntity
  8
Default
100
AcDbBlockReference
  2
GDimGGroup29
 10
0.0
 20
0.0
 30
0.0
  0
INSERT
  5
464
330
1F
100
AcDbEntity
  8
Default
100
AcDbBlockReference
  2
GDimGGroup30
 10
0.0
 20
0.0
 30
0.0
  0
INSERT
  5
470
330
1F
100
AcDbEntity
  8
Default
100
AcDbBlockReference
  2
GDimGGroup31
 10
0.0
 20
0.0
 30
0.0
  0
INSERT
  5
47D
330
1F
100
AcDbEntity
  8
Default
100
AcDbBlockReference
  2
GDimGGroup32
 10
0.0
 20
0.0
 30
0.0
  0
LINE
  5
488
330
1F
100
AcDbEntity
  8
BORDER
  6
Continuous
 62
     7
 48
25.4
100
AcDbLine
 10
6.2292620399
 20
410.0
 30
0.0
 11
586.2292620399
 21
410.0
 31
0.0
  0
LINE
  5
489
330
1F
100
AcDbEntity
  8
BORDER
  6
Continuous
 62
     7
 48
25.4
100
AcDbLine
 10
6.2292620399
 20
410.0
 30
0.0
 11
6.2292620399
 21
10.0
 31
0.0
  0
LINE
  5
48A
330
1F
100
AcDbEntity
  8
BORDER
  6
Continuous
 62
     7
 48
25.4
100
AcDbLine
 10
6.2292620399
 20
10.0
 30
0.0
 11
586.2292620399
 21
10.0
 31
0.0
  0
LINE
  5
48B
330
1F
100
AcDbEntity
  8
BORDER
  6
Continuous
 62
     7
 48
25.4
100
AcDbLine
 10
586.2292620399
 20
10.0
 30
0.0
 11
586.2292620399
 21
410.0
 31
0.0
  0
LINE
  5
48C
330
1F
100
AcDbEntity
  8
Default
  6
Continuous
 62
     7
 48
25.4
100
AcDbLine
 10
3.7292620399
 20
412.5
 30
0.0
 11
588.7292620399
 21
412.5
 31
0.0
  0
LINE
  5
48D
330
1F
100
AcDbEntity
  8
Default
  6
Continuous
 62
     7
 48
25.4
100
AcDbLine
 10
588.7292620399
 20
412.5
 30
0.0
 11
588.7292620399
 21
7.5
 31
0.0
  0
LINE
  5
48E
330
1F
100
AcDbEntity
  8
Default
  6
Continuous
 62
     7
 48
25.4
100
AcDbLine
 10
588.7292620399
 20
7.5
 30
0.0
 11
3.7292620399
 21
7.5
 31
0.0
  0
LINE
  5
48F
330
1F
100
AcDbEntity
  8
Default
  6
Continuous
 62
     7
 48
25.4
100
AcDbLine
 10
3.7292620399
 20
7.5
 30
0.0
 11
3.7292620399
 21
412.5
 31
0.0
  0
TEXT
  5
490
330
1F
100
AcDbEntity
  8
Default
  6
Continuous
 62
     7
 48
25.4
100
AcDbText
 10
473.7988794349
 20
27.8815036889
 30
0.0
 40
5.0
  1
TITLE :
  7
SEACAD_arial_ttf
 11
473.7988794349
 21
32.8815036889
 31
0.0
100
AcDbText
 73
     3
  0
TEXT
  5
491
330
1F
100
AcDbEntity
  8
Default
  6
Continuous
 62
     7
 48
25.4
100
AcDbText
 10
473.4498030642
 20
40.2710242694
 30
0.0
 40
5.0
  1
KITAGAWA EUROPE LIMITED
  7
SEACAD_arial_ttf
 11
473.4498030642
 21
45.2710242694
 31
0.0
100
AcDbText
 73
     3
  0
TEXT
  5
492
330
1F
100
AcDbEntity
  8
Default
  6
Continuous
 62
     7
 48
25.4
100
AcDbText
 10
473.9466590348
 20
14.8897624443
 30
0.0
 40
5.0
  1
www.kitagawaeurope.com
  7
SEACAD_arial_ttf
 11
473.9466590348
 21
19.8897624443
 31
0.0
100
AcDbText
 73
     3
  0
TEXT
  5
493
330
1F
100
AcDbEntity
  8
Default
  6
Continuous
 62
     7
 48
25.4
100
AcDbText
 10
497.8463064412
 20
27.5812635643
 30
0.0
 40
5.0
  1
N-10A8 POWER CHUCK
  7
SEACAD_arial_ttf
 11
497.8463064412
 21
32.5812635643
 31
0.0
100
AcDbText
 73
     3
  0
LINE
  5
494
330
1F
100
AcDbEntity
  8
Default
  6
Continuous
 62
     7
 48
25.4
100
AcDbLine
 10
471.5030858285
 20
50.0
 30
0.0
 11
586.2292620399
 21
50.0
 31
0.0
  0
LINE
  5
495
330
1F
100
AcDbEntity
  8
Default
  6
Continuous
 62
     7
 48
25.4
100
AcDbLine
 10
471.5030858285
 20
36.7
 30
0.0
 11
586.2292620399
 21
36.7
 31
0.0
  0
LINE
  5
496
330
1F
100
AcDbEntity
  8
Default
  6
Continuous
 62
     7
 48
25.4
100
AcDbLine
 10
586.2292620399
 20
23.4
 30
0.0
 11
471.5030858285
 21
23.4
 31
0.0
  0
LINE
  5
497
330
1F
100
AcDbEntity
  8
Default
  6
Continuous
 62
     7
 48
25.4
100
AcDbLine
 10
471.5030858285
 20
50.0
 30
0.0
 11
471.5030858285
 21
10.0
 31
0.0
  0
ENDSEC
  0
SECTION
  2
OBJECTS
  0
DICTIONARY
  5
C
330
0
100
AcDbDictionary
281
     1
  3
ACAD_GROUP
350
D
  3
ACAD_LAYOUT
350
1A
  3
ACAD_MLINESTYLE
350
17
  3
ACAD_PLOTSETTINGS
350
19
  3
ACAD_PLOTSTYLENAME
350
E
  0
DICTIONARY
  5
D
102
{ACAD_REACTORS
330
C
102
}
330
C
100
AcDbDictionary
281
     1
  0
DICTIONARY
  5
1A
102
{ACAD_REACTORS
330
C
102
}
330
C
100
AcDbDictionary
281
     1
  3
Layout1
350
1E
  3
Model
350
22
  0
DICTIONARY
  5
17
102
{ACAD_REACTORS
330
C
102
}
330
C
100
AcDbDictionary
281
     1
  3
Standard
350
18
  0
DICTIONARY
  5
19
102
{ACAD_REACTORS
330
C
102
}
330
C
100
AcDbDictionary
281
     1
  0
ACDBDICTIONARYWDFLT
  5
E
102
{ACAD_REACTORS
330
C
102
}
330
C
100
AcDbDictionary
281
     1
  3
Normal
350
F
100
AcDbDictionaryWithDefault
340
F
  0
LAYOUT
  5
1E
102
{ACAD_REACTORS
330
1A
102
}
330
1A
100
AcDbPlotSettings
  1

  2

  4

  6

 40
0.0
 41
0.0
 42
0.0
 43
0.0
 44
0.0
 45
0.0
 46
0.0
 47
0.0
 48
0.0
 49
0.0
140
0.0
141
0.0
142
1.0
143
1.0
 70
   688
 72
     0
 73
     0
 74
     5
  7

 75
    16
147
1.0
148
0.0
149
0.0
100
AcDbLayout
  1
Layout1
 70
     1
 71
     1
 10
0.0
 20
0.0
 11
594.0
 21
420.0
 12
0.0
 22
0.0
 32
0.0
 14
0.0
 24
0.0
 34
0.0
 15
594.0
 25
420.0
 35
0.0
146
0.0
 13
0.0
 23
0.0
 33
0.0
 16
1.0
 26
0.0
 36
0.0
 17
0.0
 27
1.0
 37
0.0
 76
     0
330
1B
  0
LAYOUT
  5
22
102
{ACAD_REACTORS
330
1A
102
}
330
1A
100
AcDbPlotSettings
  1

  2

  4

  6

 40
0.0
 41
0.0
 42
0.0
 43
0.0
 44
0.0
 45
0.0
 46
0.0
 47
0.0
 48
0.0
 49
0.0
140
0.0
141
0.0
142
1.0
143
1.0
 70
  1712
 72
     0
 73
     0
 74
     0
  7

 75
     0
147
1.0
148
0.0
149
0.0
100
AcDbLayout
  1
Model
 70
     1
 71
     0
 10
0.0
 20
0.0
 11
594.0
 21
420.0
 12
0.0
 22
0.0
 32
0.0
 14
0.0
 24
0.0
 34
0.0
 15
594.0
 25
420.0
 35
0.0
146
0.0
 13
0.0
 23
0.0
 33
0.0
 16
1.0
 26
0.0
 36
0.0
 17
0.0
 27
1.0
 37
0.0
 76
     0
330
1F
  0
MLINESTYLE
  5
18
102
{ACAD_REACTORS
330
17
102
}
330
17
100
AcDbMlineStyle
  2
Standard
 70
     0
  3

 62
   256
 51
90.0
 52
90.0
 71
     2
 49
0.5
 62
   256
  6
BYLAYER
 49
-0.5
 62
   256
  6
BYLAYER
  0
ACDBPLACEHOLDER
  5
F
102
{ACAD_REACTORS
330
E
102
}
330
E
  0
ENDSEC
  0
EOF
