  0
SECTION
  2
HEADER
  9
$ACADVER
  1
AC1015
  9
$ACADMAINTVER
 70
     6
  9
$DWGCODEPAGE
  3
ANSI_1252
  9
$INSBASE
 10
0.0
 20
0.0
 30
0.0
  9
$EXTMIN
 10
0.0
 20
0.0
 30
0.0
  9
$EXTMAX
 10
594.0
 20
420.0
 30
0.0
  9
$LIMMIN
 10
0.0
 20
0.0
  9
$LIMMAX
 10
594.0
 20
420.0
  9
$ORTHOMODE
 70
     0
  9
$REGENMODE
 70
     1
  9
$FILLMODE
 70
     1
  9
$QTEXTMODE
 70
     0
  9
$MIRRTEXT
 70
     1
  9
$LTSCALE
 40
1.0
  9
$ATTMODE
 70
     1
  9
$TEXTSIZE
 40
0.2
  9
$TRACEWID
 40
0.05
  9
$TEXTSTYLE
  7
Standard
  9
$CLAYER
  8
0
  9
$CELTYPE
  6
ByLayer
  9
$CECOLOR
 62
   256
  9
$CELTSCALE
 40
25.4
  9
$DISPSILH
 70
     0
  9
$DIMSCALE
 40
1.0
  9
$DIMASZ
 40
0.18
  9
$DIMEXO
 40
0.0625
  9
$DIMDLI
 40
0.38
  9
$DIMRND
 40
0.0
  9
$DIMDLE
 40
0.0
  9
$DIMEXE
 40
0.18
  9
$DIMTP
 40
0.0
  9
$DIMTM
 40
0.0
  9
$DIMTXT
 40
0.18
  9
$DIMCEN
 40
0.09
  9
$DIMTSZ
 40
0.0
  9
$DIMTOL
 70
     0
  9
$DIMLIM
 70
     0
  9
$DIMTIH
 70
     1
  9
$DIMTOH
 70
     1
  9
$DIMSE1
 70
     0
  9
$DIMSE2
 70
     0
  9
$DIMTAD
 70
     0
  9
$DIMZIN
 70
     0
  9
$DIMBLK
  1

  9
$DIMASO
 70
     1
  9
$DIMSHO
 70
     1
  9
$DIMPOST
  1

  9
$DIMAPOST
  1

  9
$DIMALT
 70
     0
  9
$DIMALTD
 70
     2
  9
$DIMALTF
 40
25.4
  9
$DIMLFAC
 40
1.0
  9
$DIMTOFL
 70
     0
  9
$DIMTVP
 40
0.0
  9
$DIMTIX
 70
     0
  9
$DIMSOXD
 70
     0
  9
$DIMSAH
 70
     0
  9
$DIMBLK1
  1

  9
$DIMBLK2
  1

  9
$DIMSTYLE
  2
Standard
  9
$DIMCLRD
 70
     0
  9
$DIMCLRE
 70
     0
  9
$DIMCLRT
 70
     0
  9
$DIMTFAC
 40
1.0
  9
$DIMGAP
 40
0.09
  9
$DIMJUST
 70
     0
  9
$DIMSD1
 70
     0
  9
$DIMSD2
 70
     0
  9
$DIMTOLJ
 70
     1
  9
$DIMTZIN
 70
     0
  9
$DIMALTZ
 70
     0
  9
$DIMALTTZ
 70
     0
  9
$DIMUPT
 70
     0
  9
$DIMDEC
 70
     4
  9
$DIMTDEC
 70
     4
  9
$DIMALTU
 70
     2
  9
$DIMALTTD
 70
     2
  9
$DIMTXSTY
  7
Standard
  9
$DIMAUNIT
 70
     0
  9
$DIMADEC
 70
     0
  9
$DIMALTRND
 40
0.0
  9
$DIMAZIN
 70
     0
  9
$DIMDSEP
 70
    46
  9
$DIMATFIT
 70
     3
  9
$DIMFRAC
 70
     0
  9
$DIMLDRBLK
  1

  9
$DIMLUNIT
 70
     2
  9
$DIMLWD
 70
    -2
  9
$DIMLWE
 70
    -2
  9
$DIMTMOVE
 70
     0
  9
$LUNITS
 70
     2
  9
$LUPREC
 70
     4
  9
$SKETCHINC
 40
0.1
  9
$FILLETRAD
 40
0.5
  9
$AUNITS
 70
     0
  9
$AUPREC
 70
     0
  9
$MENU
  1
.
  9
$ELEVATION
 40
0.0
  9
$PELEVATION
 40
0.0
  9
$THICKNESS
 40
0.0
  9
$LIMCHECK
 70
     0
  9
$CHAMFERA
 40
0.5
  9
$CHAMFERB
 40
0.5
  9
$CHAMFERC
 40
1.0
  9
$CHAMFERD
 40
0.0
  9
$SKPOLY
 70
     0
  9
$TDCREATE
 40
2454881.369332373
  9
$TDUCREATE
 40
2454881.369332373
  9
$TDUPDATE
 40
2454881.369332384
  9
$TDUUPDATE
 40
2454881.369332384
  9
$TDINDWG
 40
0.0000000116
  9
$TDUSRTIMER
 40
0.0000000116
  9
$USRTIMER
 70
     1
  9
$ANGBASE
 50
0.0
  9
$ANGDIR
 70
     0
  9
$PDMODE
 70
     0
  9
$PDSIZE
 40
0.0
  9
$PLINEWID
 40
0.0
  9
$SPLFRAME
 70
     0
  9
$SPLINETYPE
 70
     6
  9
$SPLINESEGS
 70
     8
  9
$HANDSEED
  5
3E9
  9
$SURFTAB1
 70
     6
  9
$SURFTAB2
 70
     6
  9
$SURFTYPE
 70
     6
  9
$SURFU
 70
     6
  9
$SURFV
 70
     6
  9
$UCSBASE
  2

  9
$UCSNAME
  2

  9
$UCSORG
 10
0.0
 20
0.0
 30
0.0
  9
$UCSXDIR
 10
1.0
 20
0.0
 30
0.0
  9
$UCSYDIR
 10
0.0
 20
1.0
 30
0.0
  9
$UCSORTHOREF
  2

  9
$UCSORTHOVIEW
 70
     0
  9
$UCSORGTOP
 10
0.0
 20
0.0
 30
0.0
  9
$UCSORGBOTTOM
 10
0.0
 20
0.0
 30
0.0
  9
$UCSORGLEFT
 10
0.0
 20
0.0
 30
0.0
  9
$UCSORGRIGHT
 10
0.0
 20
0.0
 30
0.0
  9
$UCSORGFRONT
 10
0.0
 20
0.0
 30
0.0
  9
$UCSORGBACK
 10
0.0
 20
0.0
 30
0.0
  9
$PUCSBASE
  2

  9
$PUCSNAME
  2

  9
$PUCSORG
 10
0.0
 20
0.0
 30
0.0
  9
$PUCSXDIR
 10
1.0
 20
0.0
 30
0.0
  9
$PUCSYDIR
 10
0.0
 20
1.0
 30
0.0
  9
$PUCSORTHOREF
  2

  9
$PUCSORTHOVIEW
 70
     0
  9
$PUCSORGTOP
 10
0.0
 20
0.0
 30
0.0
  9
$PUCSORGBOTTOM
 10
0.0
 20
0.0
 30
0.0
  9
$PUCSORGLEFT
 10
0.0
 20
0.0
 30
0.0
  9
$PUCSORGRIGHT
 10
0.0
 20
0.0
 30
0.0
  9
$PUCSORGFRONT
 10
0.0
 20
0.0
 30
0.0
  9
$PUCSORGBACK
 10
0.0
 20
0.0
 30
0.0
  9
$USERI1
 70
     0
  9
$USERI2
 70
     0
  9
$USERI3
 70
     0
  9
$USERI4
 70
     0
  9
$USERI5
 70
     0
  9
$USERR1
 40
0.0
  9
$USERR2
 40
0.0
  9
$USERR3
 40
0.0
  9
$USERR4
 40
0.0
  9
$USERR5
 40
0.0
  9
$WORLDVIEW
 70
     1
  9
$SHADEDGE
 70
     3
  9
$SHADEDIF
 70
    70
  9
$TILEMODE
 70
     1
  9
$MAXACTVP
 70
    64
  9
$PINSBASE
 10
0.0
 20
0.0
 30
0.0
  9
$PLIMCHECK
 70
     0
  9
$PEXTMIN
 10
0.0
 20
0.0
 30
0.0
  9
$PEXTMAX
 10
594.0
 20
420.0
 30
0.0
  9
$PLIMMIN
 10
0.0
 20
0.0
  9
$PLIMMAX
 10
594.0
 20
420.0
  9
$UNITMODE
 70
     0
  9
$VISRETAIN
 70
     1
  9
$PLINEGEN
 70
     0
  9
$PSLTSCALE
 70
     1
  9
$TREEDEPTH
 70
  3020
  9
$CMLSTYLE
  2
Standard
  9
$CMLJUST
 70
     0
  9
$CMLSCALE
 40
1.0
  9
$PROXYGRAPHICS
 70
     1
  9
$MEASUREMENT
 70
     1
  9
$CELWEIGHT
370
    -1
  9
$ENDCAPS
280
     0
  9
$JOINSTYLE
280
     0
  9
$LWDISPLAY
290
     0
  9
$INSUNITS
 70
     1
  9
$HYPERLINKBASE
  1

  9
$STYLESHEET
  1

  9
$XEDIT
290
     1
  9
$CEPSNTYPE
380
     0
  9
$PSTYLEMODE
290
     1
  9
$FINGERPRINTGUID
  2
{A13DFF43-118F-4EE8-B393-B3B3E051B04E}
  9
$VERSIONGUID
  2
{FAEB1C32-E019-11D5-929B-00C0DF256EC4}
  9
$EXTNAMES
290
     1
  9
$PSVPSCALE
 40
0.0
  9
$OLESTARTUP
290
     0
  0
ENDSEC
  0
SECTION
  2
CLASSES
  0
CLASS
  1
ACDBDICTIONARYWDFLT
  2
AcDbDictionaryWithDefault
  3
ObjectDBX Classes
 90
        0
280
     0
281
     0
  0
CLASS
  1
ACDBPLACEHOLDER
  2
AcDbPlaceHolder
  3
ObjectDBX Classes
 90
        0
280
     0
281
     0
  0
CLASS
  1
LAYOUT
  2
AcDbLayout
  3
ObjectDBX Classes
 90
        0
280
     0
281
     0
  0
ENDSEC
  0
SECTION
  2
TABLES
  0
TABLE
  2
VPORT
  5
8
330
0
100
AcDbSymbolTable
 70
     1
  0
VPORT
  5
29
330
8
100
AcDbSymbolTableRecord
100
AcDbViewportTableRecord
  2
*Active
 70
     0
 10
0.0
 20
0.0
 11
1.0
 21
1.0
 12
10.4299065421
 22
4.5
 13
0.0
 23
0.0
 14
0.5
 24
0.5
 15
0.5
 25
0.5
 16
0.0
 26
0.0
 36
1.0
 17
0.0
 27
0.0
 37
0.0
 40
9.0
 41
1.9729729729
 42
50.0
 43
0.0
 44
0.0
 50
0.0
 51
0.0
 71
     0
 72
   100
 73
     1
 74
     3
 75
     0
 76
     0
 77
     0
 78
     0
281
     0
 65
     1
110
0.0
120
0.0
130
0.0
111
1.0
121
0.0
131
0.0
112
0.0
122
1.0
132
0.0
 79
     0
146
0.0
  0
ENDTAB
  0
TABLE
  2
LTYPE
  5
5
330
0
100
AcDbSymbolTable
 70
     2
  0
LTYPE
  5
14
330
5
100
AcDbSymbolTableRecord
100
AcDbLinetypeTableRecord
  2
ByBlock
 70
     0
  3

 72
    65
 73
     0
 40
0.0
  0
LTYPE
  5
15
330
5
100
AcDbSymbolTableRecord
100
AcDbLinetypeTableRecord
  2
ByLayer
 70
     0
  3

 72
    65
 73
     0
 40
0.0
  0
LTYPE
  5
16
330
5
100
AcDbSymbolTableRecord
100
AcDbLinetypeTableRecord
  2
Continuous
 70
     0
  3
Solid line
 72
    65
 73
     0
 40
0.0
  0
LTYPE
  5
6E
330
5
100
AcDbSymbolTableRecord
100
AcDbLinetypeTableRecord
  2
CENTER2
 70
     0
  3
___ _ ___ _ ___ _ ___ _ ___ _ ___ _ ___ _ ___ _
 72
    65
 73
     4
 40
1.125
 49
0.75
 74
     4
 75
     0
340
0
 46
0.0
 50
0.0
 44
0.0
 45
0.0
 49
-0.125
 74
     4
 75
     0
340
0
 46
0.0
 50
0.0
 44
0.0
 45
0.0
 49
0.125
 74
     4
 75
     0
340
0
 46
0.0
 50
0.0
 44
0.0
 45
0.0
 49
-0.125
 74
     4
 75
     0
340
0
 46
0.0
 50
0.0
 44
0.0
 45
0.0
  0
ENDTAB
  0
TABLE
  2
LAYER
  5
2
330
0
100
AcDbSymbolTable
 70
     6
  0
LAYER
  5
10
330
2
100
AcDbSymbolTableRecord
100
AcDbLayerTableRecord
  2
0
 70
     0
 62
     7
  6
Continuous
370
    -3
390
F
  0
LAYER
  5
2A
330
2
100
AcDbSymbolTableRecord
100
AcDbLayerTableRecord
  2
Default
 70
     0
 62
     7
  6
Continuous
370
    -3
390
F
  0
LAYER
  5
68
330
2
100
AcDbSymbolTableRecord
100
AcDbLayerTableRecord
  2
DV1_Default
 70
     0
 62
     7
  6
Continuous
370
    -3
390
F
  0
LAYER
  5
148
330
2
100
AcDbSymbolTableRecord
100
AcDbLayerTableRecord
  2
DV2_Default
 70
     0
 62
     7
  6
Continuous
370
    -3
390
F
  0
LAYER
  5
1D1
330
2
100
AcDbSymbolTableRecord
100
AcDbLayerTableRecord
  2
DV3_Default
 70
     0
 62
     7
  6
Continuous
370
    -3
390
F
  0
LAYER
  5
3D8
330
2
100
AcDbSymbolTableRecord
100
AcDbLayerTableRecord
  2
BORDER
 70
     0
 62
     7
  6
Continuous
370
    -3
390
F
  0
ENDTAB
  0
TABLE
  2
STYLE
  5
3
330
0
100
AcDbSymbolTable
 70
     3
  0
STYLE
  5
11
330
3
100
AcDbSymbolTableRecord
100
AcDbTextStyleTableRecord
  2
Standard
 70
     0
 40
0.0
 41
1.0
 50
0.0
 71
     0
 42
0.2
  3
txt
  4

  0
STYLE
  5
31
330
3
100
AcDbSymbolTableRecord
100
AcDbTextStyleTableRecord
  2
SEACAD_arial_ttf
 70
     0
 40
0.2
 41
1.0
 50
0.0
 71
     0
 42
0.2
  3
arial.ttf
  4

  0
STYLE
  5
57
330
3
100
AcDbSymbolTableRecord
100
AcDbTextStyleTableRecord
  2
SEACAD_semeca1_ttf
 70
     0
 40
0.2
 41
1.0
 50
0.0
 71
     0
 42
0.2
  3
semeca1.ttf
  4

  0
ENDTAB
  0
TABLE
  2
VIEW
  5
6
330
0
100
AcDbSymbolTable
 70
     0
  0
ENDTAB
  0
TABLE
  2
UCS
  5
7
330
0
100
AcDbSymbolTable
 70
     0
  0
ENDTAB
  0
TABLE
  2
APPID
  5
9
330
0
100
AcDbSymbolTable
 70
     1
  0
APPID
  5
12
330
9
100
AcDbSymbolTableRecord
100
AcDbRegAppTableRecord
  2
ACAD
 70
     0
  0
ENDTAB
  0
TABLE
  2
DIMSTYLE
  5
A
330
0
100
AcDbSymbolTable
 70
     1
100
AcDbDimStyleTable
  0
DIMSTYLE
105
27
330
A
100
AcDbSymbolTableRecord
100
AcDbDimStyleTableRecord
  2
Standard
 70
     0
340
11
  0
ENDTAB
  0
TABLE
  2
BLOCK_RECORD
  5
1
330
0
100
AcDbSymbolTable
 70
    40
  0
BLOCK_RECORD
  5
1F
330
1
100
AcDbSymbolTableRecord
100
AcDbBlockTableRecord
  2
*Model_Space
340
22
  0
BLOCK_RECORD
  5
1B
330
1
100
AcDbSymbolTableRecord
100
AcDbBlockTableRecord
  2
*Paper_Space
340
1E
  0
BLOCK_RECORD
  5
2B
330
1
100
AcDbSymbolTableRecord
100
AcDbBlockTableRecord
  2
SEANNOT_GROUP
340
0
102
{BLKREFS
331
2C
102
}
  0
BLOCK_RECORD
  5
35
330
1
100
AcDbSymbolTableRecord
100
AcDbBlockTableRecord
  2
SEANNOT_GROUP1
340
0
102
{BLKREFS
331
36
102
}
  0
BLOCK_RECORD
  5
3F
330
1
100
AcDbSymbolTableRecord
100
AcDbBlockTableRecord
  2
SEANNOT_GROUP2
340
0
102
{BLKREFS
331
40
102
}
  0
BLOCK_RECORD
  5
48
330
1
100
AcDbSymbolTableRecord
100
AcDbBlockTableRecord
  2
SEANNOT_GROUP3
340
0
102
{BLKREFS
331
49
102
}
  0
BLOCK_RECORD
  5
51
330
1
100
AcDbSymbolTableRecord
100
AcDbBlockTableRecord
  2
SEANNOT_GROUP4
340
0
102
{BLKREFS
331
52
102
}
  0
BLOCK_RECORD
  5
5C
330
1
100
AcDbSymbolTableRecord
100
AcDbBlockTableRecord
  2
SEANNOT_GROUP5
340
0
102
{BLKREFS
331
5D
102
}
  0
BLOCK_RECORD
  5
66
330
1
100
AcDbSymbolTableRecord
100
AcDbBlockTableRecord
  2
SE
340
0
102
{BLKREFS
331
67
102
}
  0
BLOCK_RECORD
  5
146
330
1
100
AcDbSymbolTableRecord
100
AcDbBlockTableRecord
  2
SE1
340
0
102
{BLKREFS
331
147
102
}
  0
BLOCK_RECORD
  5
1CF
330
1
100
AcDbSymbolTableRecord
100
AcDbBlockTableRecord
  2
SE2
340
0
102
{BLKREFS
331
1D0
102
}
  0
BLOCK_RECORD
  5
268
330
1
100
AcDbSymbolTableRecord
100
AcDbBlockTableRecord
  2
GDimGGroup
340
0
102
{BLKREFS
331
269
102
}
  0
BLOCK_RECORD
  5
275
330
1
100
AcDbSymbolTableRecord
100
AcDbBlockTableRecord
  2
GDimGGroup1
340
0
102
{BLKREFS
331
276
102
}
  0
BLOCK_RECORD
  5
282
330
1
100
AcDbSymbolTableRecord
100
AcDbBlockTableRecord
  2
GDimGGroup2
340
0
102
{BLKREFS
331
283
102
}
  0
BLOCK_RECORD
  5
28E
330
1
100
AcDbSymbolTableRecord
100
AcDbBlockTableRecord
  2
GDimGGroup3
340
0
102
{BLKREFS
331
28F
102
}
  0
BLOCK_RECORD
  5
29A
330
1
100
AcDbSymbolTableRecord
100
AcDbBlockTableRecord
  2
GDimGGroup4
340
0
102
{BLKREFS
331
29B
102
}
  0
BLOCK_RECORD
  5
2A6
330
1
100
AcDbSymbolTableRecord
100
AcDbBlockTableRecord
  2
GDimGGroup5
340
0
102
{BLKREFS
331
2A7
102
}
  0
BLOCK_RECORD
  5
2B2
330
1
100
AcDbSymbolTableRecord
100
AcDbBlockTableRecord
  2
GDimGGroup6
340
0
102
{BLKREFS
331
2B3
102
}
  0
BLOCK_RECORD
  5
2BD
330
1
100
AcDbSymbolTableRecord
100
AcDbBlockTableRecord
  2
GDimGGroup7
340
0
102
{BLKREFS
331
2BE
102
}
  0
BLOCK_RECORD
  5
2C9
330
1
100
AcDbSymbolTableRecord
100
AcDbBlockTableRecord
  2
GDimGGroup8
340
0
102
{BLKREFS
331
2CA
102
}
  0
BLOCK_RECORD
  5
2D5
330
1
100
AcDbSymbolTableRecord
100
AcDbBlockTableRecord
  2
GDimGGroup9
340
0
102
{BLKREFS
331
2D6
102
}
  0
BLOCK_RECORD
  5
2E0
330
1
100
AcDbSymbolTableRecord
100
AcDbBlockTableRecord
  2
GDimGGroup10
340
0
102
{BLKREFS
331
2E1
102
}
  0
BLOCK_RECORD
  5
2ED
330
1
100
AcDbSymbolTableRecord
100
AcDbBlockTableRecord
  2
GDimGGroup11
340
0
102
{BLKREFS
331
2EE
102
}
  0
BLOCK_RECORD
  5
2F8
330
1
100
AcDbSymbolTableRecord
100
AcDbBlockTableRecord
  2
GDimGGroup12
340
0
102
{BLKREFS
331
2F9
102
}
  0
BLOCK_RECORD
  5
306
330
1
100
AcDbSymbolTableRecord
100
AcDbBlockTableRecord
  2
GDimGGroup13
340
0
102
{BLKREFS
331
307
102
}
  0
BLOCK_RECORD
  5
313
330
1
100
AcDbSymbolTableRecord
100
AcDbBlockTableRecord
  2
GDimGGroup14
340
0
102
{BLKREFS
331
314
102
}
  0
BLOCK_RECORD
  5
31F
330
1
100
AcDbSymbolTableRecord
100
AcDbBlockTableRecord
  2
GDimGGroup15
340
0
102
{BLKREFS
331
320
102
}
  0
BLOCK_RECORD
  5
32A
330
1
100
AcDbSymbolTableRecord
100
AcDbBlockTableRecord
  2
GDimGGroup16
340
0
102
{BLKREFS
331
32B
102
}
  0
BLOCK_RECORD
  5
336
330
1
100
AcDbSymbolTableRecord
100
AcDbBlockTableRecord
  2
GDimGGroup17
340
0
102
{BLKREFS
331
337
102
}
  0
BLOCK_RECORD
  5
342
330
1
100
AcDbSymbolTableRecord
100
AcDbBlockTableRecord
  2
GDimGGroup18
340
0
102
{BLKREFS
331
343
102
}
  0
BLOCK_RECORD
  5
34E
330
1
100
AcDbSymbolTableRecord
100
AcDbBlockTableRecord
  2
GDimGGroup19
340
0
102
{BLKREFS
331
34F
102
}
  0
BLOCK_RECORD
  5
35A
330
1
100
AcDbSymbolTableRecord
100
AcDbBlockTableRecord
  2
GDimGGroup20
340
0
102
{BLKREFS
331
35B
102
}
  0
BLOCK_RECORD
  5
368
330
1
100
AcDbSymbolTableRecord
100
AcDbBlockTableRecord
  2
GDimGGroup21
340
0
102
{BLKREFS
331
369
102
}
  0
BLOCK_RECORD
  5
374
330
1
100
AcDbSymbolTableRecord
100
AcDbBlockTableRecord
  2
GDimGGroup22
340
0
102
{BLKREFS
331
375
102
}
  0
BLOCK_RECORD
  5
382
330
1
100
AcDbSymbolTableRecord
100
AcDbBlockTableRecord
  2
GDimGGroup23
340
0
102
{BLKREFS
331
383
102
}
  0
BLOCK_RECORD
  5
38E
330
1
100
AcDbSymbolTableRecord
100
AcDbBlockTableRecord
  2
GDimGGroup24
340
0
102
{BLKREFS
331
38F
102
}
  0
BLOCK_RECORD
  5
39C
330
1
100
AcDbSymbolTableRecord
100
AcDbBlockTableRecord
  2
GDimGGroup25
340
0
102
{BLKREFS
331
39D
102
}
  0
BLOCK_RECORD
  5
3A8
330
1
100
AcDbSymbolTableRecord
100
AcDbBlockTableRecord
  2
GDimGGroup26
340
0
102
{BLKREFS
331
3A9
102
}
  0
BLOCK_RECORD
  5
3B4
330
1
100
AcDbSymbolTableRecord
100
AcDbBlockTableRecord
  2
GDimGGroup27
340
0
102
{BLKREFS
331
3B5
102
}
  0
BLOCK_RECORD
  5
3C0
330
1
100
AcDbSymbolTableRecord
100
AcDbBlockTableRecord
  2
GDimGGroup28
340
0
102
{BLKREFS
331
3C1
102
}
  0
BLOCK_RECORD
  5
3CC
330
1
100
AcDbSymbolTableRecord
100
AcDbBlockTableRecord
  2
GDimGGroup29
340
0
102
{BLKREFS
331
3CD
102
}
  0
ENDTAB
  0
ENDSEC
  0
SECTION
  2
BLOCKS
  0
BLOCK
  5
20
330
1F
100
AcDbEntity
  8
0
100
AcDbBlockBegin
  2
*Model_Space
 70
     0
 71
     0
 10
0.0
 20
0.0
 30
0.0
  3
*Model_Space
  1

  0
ENDBLK
  5
21
330
1F
100
AcDbEntity
  8
0
100
AcDbBlockEnd
  0
BLOCK
  5
1C
330
1B
100
AcDbEntity
 67
     1
  8
0
100
AcDbBlockBegin
  2
*Paper_Space
 70
     0
 71
     0
 10
0.0
 20
0.0
 30
0.0
  3
*Paper_Space
  1

  0
ENDBLK
  5
1D
330
1B
100
AcDbEntity
 67
     1
  8
0
100
AcDbBlockEnd
  0
BLOCK
  5
33
330
2B
100
AcDbEntity
  8
0
100
AcDbBlockBegin
  2
SEANNOT_GROUP
 70
     0
 71
     0
 10
0.0
 20
0.0
 30
0.0
  3
SEANNOT_GROUP
  1

  0
LWPOLYLINE
  5
2D
330
2B
100
AcDbEntity
  8
Default
  6
Continuous
 62
     7
 48
25.4
100
AcDbPolyline
 90
        2
 70
     0
 43
0.0
 10
111.1054344386
 20
230.8616699427
 10
130.6646307982
 20
249.7558288869
  0
HATCH
  5
2E
330
2B
100
AcDbEntity
  8
Default
  6
Continuous
 62
     7
 48
25.4
100
AcDbHatch
 10
0.0
 20
0.0
 30
0.0
210
0.0
220
0.0
230
1.0
  2
SOLID
 70
     1
 71
     0
 91
        1
 92
        1
 93
        3
 72
     1
 10
128.2508995907357
 20
246.497248265762
 11
130.6646307982465
 21
249.7558288869024
 72
     1
 10
130.6646307982465
 20
249.7558288869024
 11
127.3245345896908
 21
247.4562195017731
 72
     1
 10
127.3245345896908
 20
247.4562195017731
 11
128.2508995907357
 21
246.497248265762
 97
        0
 75
     0
 76
     1
 98
        0
  0
LWPOLYLINE
  5
2F
330
2B
100
AcDbEntity
  8
Default
  6
Continuous
 62
     7
 48
25.4
370
    20
100
AcDbPolyline
 90
        4
 70
     1
 43
0.0
 10
128.2508995907
 20
246.4972482658
 10
130.6646307982
 20
249.7558288869
 10
127.3245345897
 20
247.4562195018
 10
128.2508995907
 20
246.4972482658
  0
LINE
  5
30
330
2B
100
AcDbEntity
  8
Default
  6
Continuous
 62
     7
 48
25.4
100
AcDbLine
 10
111.1054344386
 20
230.8616699427
 30
0.0
 11
93.0822551971
 21
230.8616699427
 31
0.0
  0
TEXT
  5
32
330
2B
100
AcDbEntity
  8
Default
  6
Continuous
 62
     7
 48
25.4
100
AcDbText
 10
93.0822551971
 20
231.8616699427
 30
0.0
 40
4.0
  1
6-M12
  7
SEACAD_arial_ttf
 11
93.0822551971
 21
235.8616699427
 31
0.0
100
AcDbText
 73
     3
  0
ENDBLK
  5
34
330
2B
100
AcDbEntity
  8
0
100
AcDbBlockEnd
  0
BLOCK
  5
3D
330
35
100
AcDbEntity
  8
0
100
AcDbBlockBegin
  2
SEANNOT_GROUP1
 70
     0
 71
     0
 10
0.0
 20
0.0
 30
0.0
  3
SEANNOT_GROUP1
  1

  0
LWPOLYLINE
  5
37
330
35
100
AcDbEntity
  8
Default
  6
Continuous
 62
     7
 48
25.4
100
AcDbPolyline
 90
        2
 70
     0
 43
0.0
 10
253.4248764261
 20
392.3290112534
 10
217.5204506777
 20
376.3786530579
  0
HATCH
  5
38
330
35
100
AcDbEntity
  8
Default
  6
Continuous
 62
     7
 48
25.4
100
AcDbHatch
 10
0.0
 20
0.0
 30
0.0
210
0.0
220
0.0
230
1.0
  2
SOLID
 70
     1
 71
     0
 91
        1
 92
        1
 93
        3
 72
     1
 10
220.9053102388096
 20
378.6118507110814
 11
217.520450677693
 21
376.3786530579167
 72
     1
 10
217.520450677693
 20
376.3786530579167
 11
221.4466251770729
 21
377.393345034332
 72
     1
 10
221.4466251770729
 20
377.393345034332
 11
220.9053102388096
 21
378.6118507110814
 97
        0
 75
     0
 76
     1
 98
        0
  0
LWPOLYLINE
  5
39
330
35
100
AcDbEntity
  8
Default
  6
Continuous
 62
     7
 48
25.4
370
    20
100
AcDbPolyline
 90
        4
 70
     1
 43
0.0
 10
220.9053102388
 20
378.6118507111
 10
217.5204506777
 20
376.3786530579
 10
221.4466251771
 20
377.3933450343
 10
220.9053102388
 20
378.6118507111
  0
LINE
  5
3A
330
35
100
AcDbEntity
  8
Default
  6
Continuous
 62
     7
 48
25.4
100
AcDbLine
 10
253.4248764261
 20
392.3290112534
 30
0.0
 11
325.2654561363
 21
392.3290112534
 31
0.0
  0
TEXT
  5
3B
330
35
100
AcDbEntity
  8
Default
  6
Continuous
 62
     7
 48
25.4
100
AcDbText
 10
253.4248764261
 20
393.3290112534
 30
0.0
 40
4.0
  1
SERRATION PITCH 1.5X60
  7
SEACAD_arial_ttf
 11
253.4248764261
 21
397.3290112534
 31
0.0
100
AcDbText
 73
     3
  0
TEXT
  5
3C
330
35
100
AcDbEntity
  8
Default
  6
Continuous
 62
     7
 48
25.4
100
AcDbText
 10
323.5987894696
 20
393.3290112534
 30
0.0
 40
4.0
  1
°
  7
SEACAD_arial_ttf
 11
323.5987894696
 21
397.3290112534
 31
0.0
100
AcDbText
 73
     3
  0
ENDBLK
  5
3E
330
35
100
AcDbEntity
  8
0
100
AcDbBlockEnd
  0
BLOCK
  5
46
330
3F
100
AcDbEntity
  8
0
100
AcDbBlockBegin
  2
SEANNOT_GROUP2
 70
     0
 71
     0
 10
0.0
 20
0.0
 30
0.0
  3
SEANNOT_GROUP2
  1

  0
LWPOLYLINE
  5
41
330
3F
100
AcDbEntity
  8
Default
  6
Continuous
 62
     7
 48
25.4
100
AcDbPolyline
 90
        2
 70
     0
 43
0.0
 10
134.8652363824
 20
342.8243905474
 10
165.4576623206
 20
320.3791812112
  0
HATCH
  5
42
330
3F
100
AcDbEntity
  8
Default
  6
Continuous
 62
     7
 48
25.4
100
AcDbHatch
 10
0.0
 20
0.0
 30
0.0
210
0.0
220
0.0
230
1.0
  2
SOLID
 70
     1
 71
     0
 91
        1
 92
        1
 93
        3
 72
     1
 10
161.8382179559447
 20
322.2078606520342
 11
165.4576623206462
 21
320.3791812111772
 72
     1
 10
165.4576623206462
 20
320.3791812111771
 11
162.6269488213417
 21
323.2828869627019
 72
     1
 10
162.6269488213417
 20
323.2828869627019
 11
161.8382179559447
 21
322.2078606520342
 97
        0
 75
     0
 76
     1
 98
        0
  0
LWPOLYLINE
  5
43
330
3F
100
AcDbEntity
  8
Default
  6
Continuous
 62
     7
 48
25.4
370
    20
100
AcDbPolyline
 90
        4
 70
     1
 43
0.0
 10
161.8382179559
 20
322.207860652
 10
165.4576623206
 20
320.3791812112
 10
162.6269488213
 20
323.2828869627
 10
161.8382179559
 20
322.207860652
  0
LINE
  5
44
330
3F
100
AcDbEntity
  8
Default
  6
Continuous
 62
     7
 48
25.4
100
AcDbLine
 10
134.8652363824
 20
342.8243905474
 30
0.0
 11
99.1261059476
 21
342.8243905474
 31
0.0
  0
TEXT
  5
45
330
3F
100
AcDbEntity
  8
Default
  6
Continuous
 62
     7
 48
25.4
100
AcDbText
 10
99.1261059476
 20
343.8243905474
 30
0.0
 40
4.0
  1
MAX M90X2.0
  7
SEACAD_arial_ttf
 11
99.1261059476
 21
347.8243905474
 31
0.0
100
AcDbText
 73
     3
  0
ENDBLK
  5
47
330
3F
100
AcDbEntity
  8
0
100
AcDbBlockEnd
  0
BLOCK
  5
4F
330
48
100
AcDbEntity
  8
0
100
AcDbBlockBegin
  2
SEANNOT_GROUP3
 70
     0
 71
     0
 10
0.0
 20
0.0
 30
0.0
  3
SEANNOT_GROUP3
  1

  0
LWPOLYLINE
  5
4A
330
48
100
AcDbEntity
  8
Default
  6
Continuous
 62
     7
 48
25.4
100
AcDbPolyline
 90
        2
 70
     0
 43
0.0
 10
109.4905382899
 20
214.3912914817
 10
149.0288140884
 20
241.8128969104
  0
HATCH
  5
4B
330
48
100
AcDbEntity
  8
Default
  6
Continuous
 62
     7
 48
25.4
100
AcDbHatch
 10
0.0
 20
0.0
 30
0.0
210
0.0
220
0.0
230
1.0
  2
SOLID
 70
     1
 71
     0
 91
        1
 92
        1
 93
        3
 72
     1
 10
146.1218825531522
 20
238.9854961506537
 11
149.0288140883597
 21
241.8128969103973
 72
     1
 10
149.0288140883597
 20
241.8128969103973
 11
145.3620191464898
 21
240.0811172301666
 72
     1
 10
145.3620191464898
 20
240.0811172301666
 11
146.1218825531522
 21
238.9854961506537
 97
        0
 75
     0
 76
     1
 98
        0
  0
LWPOLYLINE
  5
4C
330
48
100
AcDbEntity
  8
Default
  6
Continuous
 62
     7
 48
25.4
370
    20
100
AcDbPolyline
 90
        4
 70
     1
 43
0.0
 10
146.1218825532
 20
238.9854961507
 10
149.0288140884
 20
241.8128969104
 10
145.3620191465
 20
240.0811172302
 10
146.1218825532
 20
238.9854961507
  0
LINE
  5
4D
330
48
100
AcDbEntity
  8
Default
  6
Continuous
 62
     7
 48
25.4
100
AcDbLine
 10
109.4905382899
 20
214.3912914817
 30
0.0
 11
93.6644513334
 21
214.3912914817
 31
0.0
  0
TEXT
  5
4E
330
48
100
AcDbEntity
  8
Default
  6
Continuous
 62
     7
 48
25.4
100
AcDbText
 10
93.6644513334
 20
215.3912914817
 30
0.0
 40
4.0
  1
6-M16
  7
SEACAD_arial_ttf
 11
93.6644513334
 21
219.3912914817
 31
0.0
100
AcDbText
 73
     3
  0
ENDBLK
  5
50
330
48
100
AcDbEntity
  8
0
100
AcDbBlockEnd
  0
BLOCK
  5
5A
330
51
100
AcDbEntity
  8
0
100
AcDbBlockBegin
  2
SEANNOT_GROUP4
 70
     0
 71
     0
 10
0.0
 20
0.0
 30
0.0
  3
SEANNOT_GROUP4
  1

  0
LWPOLYLINE
  5
53
330
51
100
AcDbEntity
  8
Default
  6
Continuous
 62
     7
 48
25.4
100
AcDbPolyline
 90
        2
 70
     0
 43
0.0
 10
120.4144012581
 20
270.4378016613
 10
120.4144012581
 20
257.948650582
  0
HATCH
  5
54
330
51
100
AcDbEntity
  8
Default
  6
Continuous
 62
     7
 48
25.4
100
AcDbHatch
 10
0.0
 20
0.0
 30
0.0
210
0.0
220
0.0
230
1.0
  2
SOLID
 70
     1
 71
     0
 91
        1
 92
        1
 93
        3
 72
     1
 10
119.7477345598146
 20
261.9486507720175
 11
120.4144012581463
 21
257.9486505820277
 72
     1
 10
120.4144012581463
 20
257.9486505820277
 11
121.0810679564779
 21
261.9486507720175
 72
     1
 10
121.0810679564779
 20
261.9486507720175
 11
119.7477345598146
 21
261.9486507720175
 97
        0
 75
     0
 76
     1
 98
        0
  0
LWPOLYLINE
  5
55
330
51
100
AcDbEntity
  8
Default
  6
Continuous
 62
     7
 48
25.4
370
    20
100
AcDbPolyline
 90
        4
 70
     1
 43
0.0
 10
119.7477345598
 20
261.948650772
 10
120.4144012581
 20
257.948650582
 10
121.0810679565
 20
261.948650772
 10
119.7477345598
 20
261.948650772
  0
LINE
  5
56
330
51
100
AcDbEntity
  8
Default
  6
Continuous
 62
     7
 48
25.4
100
AcDbLine
 10
123.1562353749
 20
257.948650582
 30
0.0
 11
118.4144012581
 21
257.948650582
 31
0.0
  0
TEXT
  5
58
330
51
100
AcDbEntity
  8
Default
  6
Continuous
 62
     7
 48
25.4
100
AcDbText
 10
100.3660412276
 20
268.4378016613
 30
0.0
 40
4.0
  1
O
  7
SEACAD_semeca1_ttf
 11
100.3660412276
 21
272.4378016613
 31
0.0
100
AcDbText
 73
     3
  0
TEXT
  5
59
330
51
100
AcDbEntity
  8
Default
  6
Continuous
 62
     7
 48
25.4
100
AcDbText
 10
104.9274447364
 20
268.4378016613
 30
0.0
 40
4.0
  1
133.4
  7
SEACAD_arial_ttf
 11
104.9274447364
 21
272.4378016613
 31
0.0
100
AcDbText
 73
     3
  0
ENDBLK
  5
5B
330
51
100
AcDbEntity
  8
0
100
AcDbBlockEnd
  0
BLOCK
  5
64
330
5C
100
AcDbEntity
  8
0
100
AcDbBlockBegin
  2
SEANNOT_GROUP5
 70
     0
 71
     0
 10
0.0
 20
0.0
 30
0.0
  3
SEANNOT_GROUP5
  1

  0
LWPOLYLINE
  5
5E
330
5C
100
AcDbEntity
  8
Default
  6
Continuous
 62
     7
 48
25.4
100
AcDbPolyline
 90
        2
 70
     0
 43
0.0
 10
238.7634567111
 20
264.1076887472
 10
238.7634567111
 20
242.0082923713
  0
HATCH
  5
5F
330
5C
100
AcDbEntity
  8
Default
  6
Continuous
 62
     7
 48
25.4
100
AcDbHatch
 10
0.0
 20
0.0
 30
0.0
210
0.0
220
0.0
230
1.0
  2
SOLID
 70
     1
 71
     0
 91
        1
 92
        1
 93
        3
 72
     1
 10
238.0967900127669
 20
246.0082925612656
 11
238.7634567110985
 21
242.0082923712758
 72
     1
 10
238.7634567110985
 20
242.0082923712758
 11
239.4301234094301
 21
246.0082925612656
 72
     1
 10
239.4301234094301
 20
246.0082925612656
 11
238.0967900127669
 21
246.0082925612656
 97
        0
 75
     0
 76
     1
 98
        0
  0
LWPOLYLINE
  5
60
330
5C
100
AcDbEntity
  8
Default
  6
Continuous
 62
     7
 48
25.4
370
    20
100
AcDbPolyline
 90
        4
 70
     1
 43
0.0
 10
238.0967900128
 20
246.0082925613
 10
238.7634567111
 20
242.0082923713
 10
239.4301234094
 20
246.0082925613
 10
238.0967900128
 20
246.0082925613
  0
LINE
  5
61
330
5C
100
AcDbEntity
  8
Default
  6
Continuous
 62
     7
 48
25.4
100
AcDbLine
 10
226.4708698679
 20
242.0082923713
 30
0.0
 11
240.7634567111
 21
242.0082923713
 31
0.0
  0
TEXT
  5
62
330
5C
100
AcDbEntity
  8
Default
  6
Continuous
 62
     7
 48
25.4
100
AcDbText
 10
240.1634567111
 20
262.1076887472
 30
0.0
 40
4.0
  1
O
  7
SEACAD_semeca1_ttf
 11
240.1634567111
 21
266.1076887472
 31
0.0
100
AcDbText
 73
     3
  0
TEXT
  5
63
330
5C
100
AcDbEntity
  8
Default
  6
Continuous
 62
     7
 48
25.4
100
AcDbText
 10
244.7248602199
 20
262.1076887472
 30
0.0
 40
4.0
  1
171.4
  7
SEACAD_arial_ttf
 11
244.7248602199
 21
266.1076887472
 31
0.0
100
AcDbText
 73
     3
  0
ENDBLK
  5
65
330
5C
100
AcDbEntity
  8
0
100
AcDbBlockEnd
  0
BLOCK
  5
144
330
66
100
AcDbEntity
  8
0
100
AcDbBlockBegin
  2
SE
 70
     0
 71
     0
 10
0.0
 20
0.0
 30
0.0
  3
SE
  1

  0
LINE
  5
69
330
66
100
AcDbEntity
  8
DV1_Default
  6
Continuous
 62
     7
 48
25.4
100
AcDbLine
 10
216.6245093779
 20
249.5530711959
 30
0.0
 11
206.4245093779
 21
249.5530711959
 31
0.0
  0
LINE
  5
6A
330
66
100
AcDbEntity
  8
DV1_Default
  6
Continuous
 62
     7
 48
25.4
100
AcDbLine
 10
206.4245093779
 20
249.5530711959
 30
0.0
 11
206.4245093779
 21
242.0082923713
 31
0.0
  0
LINE
  5
6B
330
66
100
AcDbEntity
  8
DV1_Default
  6
Continuous
 62
     7
 48
25.4
100
AcDbLine
 10
206.4245093779
 20
247.1082902837
 30
0.0
 11
193.0412025402
 21
247.1082902837
 31
0.0
  0
LINE
  5
6C
330
66
100
AcDbEntity
  8
DV1_Default
  6
Continuous
 62
     7
 48
25.4
100
AcDbLine
 10
206.4245093779
 20
247.1082902837
 30
0.0
 11
206.4245093779
 21
246.8082902837
 31
0.0
  0
LINE
  5
6D
330
66
100
AcDbEntity
  8
DV1_Default
  6
Continuous
 62
     7
 48
25.4
100
AcDbLine
 10
167.2937918191
 20
246.8082902837
 30
0.0
 11
167.2937918191
 21
242.0082923713
 31
0.0
  0
LINE
  5
6F
330
66
100
AcDbEntity
  8
DV1_Default
  6
CENTER2
 62
     7
 48
25.4
100
AcDbLine
 10
106.8221980323
 20
293.3791831535
 30
0.0
 11
249.2908035228
 21
293.3791831535
 31
0.0
  0
LINE
  5
70
330
66
100
AcDbEntity
  8
DV1_Default
  6
Continuous
 62
     7
 48
25.4
100
AcDbLine
 10
214.2204506777
 20
262.1659511468
 30
0.0
 11
209.721694763
 21
262.1659511468
 31
0.0
  0
LINE
  5
71
330
66
100
AcDbEntity
  8
DV1_Default
  6
Continuous
 62
     7
 48
25.4
100
AcDbLine
 10
209.721694763
 20
259.1659511468
 30
0.0
 11
214.2204506777
 21
259.1659511468
 31
0.0
  0
LINE
  5
72
330
66
100
AcDbEntity
  8
DV1_Default
  6
Continuous
 62
     7
 48
25.4
100
AcDbLine
 10
214.2204506777
 20
261.8798313017
 30
0.0
 11
209.721694763
 21
261.8798313017
 31
0.0
  0
LINE
  5
73
330
66
100
AcDbEntity
  8
DV1_Default
  6
Continuous
 62
     7
 48
25.4
100
AcDbLine
 10
214.2204506777
 20
259.4798313017
 30
0.0
 11
209.721694763
 21
259.4798313017
 31
0.0
  0
LINE
  5
74
330
66
100
AcDbEntity
  8
DV1_Default
  6
Continuous
 62
     7
 48
25.4
100
AcDbLine
 10
206.4245093779
 20
249.2530711959
 30
0.0
 11
216.0245093779
 21
249.2530711959
 31
0.0
  0
LINE
  5
75
330
66
100
AcDbEntity
  8
DV1_Default
  6
Continuous
 62
     7
 48
25.4
100
AcDbLine
 10
216.3245093779
 20
248.9530711959
 30
0.0
 11
216.3245093779
 21
242.0082923713
 31
0.0
  0
LINE
  5
76
330
66
100
AcDbEntity
  8
DV1_Default
  6
Continuous
 62
     7
 48
25.4
100
AcDbLine
 10
216.0245093779
 20
249.2530711959
 30
0.0
 11
216.3245093779
 21
248.9530711959
 31
0.0
  0
LINE
  5
77
330
66
100
AcDbEntity
  8
DV1_Default
  6
Continuous
 62
     7
 48
25.4
100
AcDbLine
 10
216.0245093779
 20
249.2530711959
 30
0.0
 11
216.0245093779
 21
242.0082923713
 31
0.0
  0
LINE
  5
78
330
66
100
AcDbEntity
  8
DV1_Default
  6
Continuous
 62
     7
 48
25.4
100
AcDbLine
 10
216.6245093779
 20
234.4635135466
 30
0.0
 11
206.4245093779
 21
234.4635135466
 31
0.0
  0
LINE
  5
79
330
66
100
AcDbEntity
  8
DV1_Default
  6
Continuous
 62
     7
 48
25.4
100
AcDbLine
 10
206.4245093779
 20
234.4635135466
 30
0.0
 11
206.4245093779
 21
242.0082923713
 31
0.0
  0
LINE
  5
7A
330
66
100
AcDbEntity
  8
DV1_Default
  6
Continuous
 62
     7
 48
25.4
100
AcDbLine
 10
167.2937918191
 20
237.2082944589
 30
0.0
 11
167.2937918191
 21
242.0082923713
 31
0.0
  0
LINE
  5
7B
330
66
100
AcDbEntity
  8
DV1_Default
  6
Continuous
 62
     7
 48
25.4
100
AcDbLine
 10
206.4245093779
 20
234.7635135466
 30
0.0
 11
216.0245093779
 21
234.7635135466
 31
0.0
  0
LINE
  5
7C
330
66
100
AcDbEntity
  8
DV1_Default
  6
Continuous
 62
     7
 48
25.4
100
AcDbLine
 10
216.3245093779
 20
235.0635135466
 30
0.0
 11
216.3245093779
 21
242.0082923713
 31
0.0
  0
LINE
  5
7D
330
66
100
AcDbEntity
  8
DV1_Default
  6
Continuous
 62
     7
 48
25.4
100
AcDbLine
 10
216.0245093779
 20
234.7635135466
 30
0.0
 11
216.3245093779
 21
235.0635135466
 31
0.0
  0
LINE
  5
7E
330
66
100
AcDbEntity
  8
DV1_Default
  6
Continuous
 62
     7
 48
25.4
100
AcDbLine
 10
216.0245093779
 20
234.7635135466
 30
0.0
 11
216.0245093779
 21
242.0082923713
 31
0.0
  0
LINE
  5
7F
330
66
100
AcDbEntity
  8
DV1_Default
  6
Continuous
 62
     7
 48
25.4
100
AcDbLine
 10
174.3122924798
 20
260.113686451
 30
0.0
 11
168.3122924798
 21
260.113686451
 31
0.0
  0
LINE
  5
80
330
66
100
AcDbEntity
  8
DV1_Default
  6
Continuous
 62
     7
 48
25.4
100
AcDbLine
 10
174.3122924798
 20
250.513686451
 30
0.0
 11
168.3122924798
 21
250.513686451
 31
0.0
  0
LINE
  5
81
330
66
100
AcDbEntity
  8
DV1_Default
  6
Continuous
 62
     7
 48
25.4
100
AcDbLine
 10
168.9122924798
 20
259.813686451
 30
0.0
 11
174.3122924798
 21
259.813686451
 31
0.0
  0
LINE
  5
82
330
66
100
AcDbEntity
  8
DV1_Default
  6
Continuous
 62
     7
 48
25.4
100
AcDbLine
 10
174.3122924798
 20
250.813686451
 30
0.0
 11
168.9122924798
 21
250.813686451
 31
0.0
  0
LINE
  5
83
330
66
100
AcDbEntity
  8
DV1_Default
  6
Continuous
 62
     7
 48
25.4
100
AcDbLine
 10
168.6122924798
 20
251.113686451
 30
0.0
 11
168.6122924798
 21
259.513686451
 31
0.0
  0
LINE
  5
84
330
66
100
AcDbEntity
  8
DV1_Default
  6
Continuous
 62
     7
 48
25.4
100
AcDbLine
 10
168.9122924798
 20
250.813686451
 30
0.0
 11
168.6122924798
 21
251.113686451
 31
0.0
  0
LINE
  5
85
330
66
100
AcDbEntity
  8
DV1_Default
  6
Continuous
 62
     7
 48
25.4
100
AcDbLine
 10
168.6122924798
 20
259.513686451
 30
0.0
 11
168.9122924798
 21
259.813686451
 31
0.0
  0
LINE
  5
86
330
66
100
AcDbEntity
  8
DV1_Default
  6
Continuous
 62
     7
 48
25.4
100
AcDbLine
 10
168.9122924798
 20
259.813686451
 30
0.0
 11
168.9122924798
 21
250.813686451
 31
0.0
  0
LINE
  5
87
330
66
100
AcDbEntity
  8
DV1_Default
  6
Continuous
 62
     7
 48
25.4
100
AcDbLine
 10
209.721694763
 20
262.1659511468
 30
0.0
 11
208.821694763
 21
262.1659511468
 31
0.0
  0
LINE
  5
88
330
66
100
AcDbEntity
  8
DV1_Default
  6
Continuous
 62
     7
 48
25.4
100
AcDbLine
 10
208.821694763
 20
262.1659511468
 30
0.0
 11
208.821694763
 21
259.1659511468
 31
0.0
  0
LINE
  5
89
330
66
100
AcDbEntity
  8
DV1_Default
  6
Continuous
 62
     7
 48
25.4
100
AcDbLine
 10
208.821694763
 20
259.1659511468
 30
0.0
 11
209.721694763
 21
259.1659511468
 31
0.0
  0
LINE
  5
8A
330
66
100
AcDbEntity
  8
DV1_Default
  6
Continuous
 62
     7
 48
25.4
100
AcDbLine
 10
209.721694763
 20
261.8798313017
 30
0.0
 11
208.821694763
 21
261.8798313017
 31
0.0
  0
LINE
  5
8B
330
66
100
AcDbEntity
  8
DV1_Default
  6
Continuous
 62
     7
 48
25.4
100
AcDbLine
 10
209.721694763
 20
259.4798313017
 30
0.0
 11
208.821694763
 21
259.4798313017
 31
0.0
  0
LINE
  5
8C
330
66
100
AcDbEntity
  8
DV1_Default
  6
Continuous
 62
     7
 48
25.4
100
AcDbLine
 10
154.2204530244
 20
259.0595556639
 30
0.0
 11
147.0204530244
 21
259.0595556639
 31
0.0
  0
LINE
  5
8D
330
66
100
AcDbEntity
  8
DV1_Default
  6
Continuous
 62
     7
 48
25.4
100
AcDbLine
 10
147.0204530244
 20
259.0595556639
 30
0.0
 11
147.0204530244
 21
247.6595556639
 31
0.0
  0
LINE
  5
8E
330
66
100
AcDbEntity
  8
DV1_Default
  6
Continuous
 62
     7
 48
25.4
100
AcDbLine
 10
147.0204530244
 20
247.6595556639
 30
0.0
 11
154.2204530244
 21
247.6595556639
 31
0.0
  0
LINE
  5
8F
330
66
100
AcDbEntity
  8
DV1_Default
  6
Continuous
 62
     7
 48
25.4
100
AcDbLine
 10
147.0204530244
 20
256.9558288869
 30
0.0
 11
139.2204530244
 21
256.9558288869
 31
0.0
  0
LINE
  5
90
330
66
100
AcDbEntity
  8
DV1_Default
  6
Continuous
 62
     7
 48
25.4
100
AcDbLine
 10
139.2204530244
 20
256.9558288869
 30
0.0
 11
128.1204530244
 21
256.9558288869
 31
0.0
  0
LINE
  5
91
330
66
100
AcDbEntity
  8
DV1_Default
  6
Continuous
 62
     7
 48
25.4
100
AcDbLine
 10
128.1204530244
 20
256.9558288869
 30
0.0
 11
128.1204530244
 21
249.7558288869
 31
0.0
  0
LINE
  5
92
330
66
100
AcDbEntity
  8
DV1_Default
  6
Continuous
 62
     7
 48
25.4
100
AcDbLine
 10
128.1204530244
 20
249.7558288869
 30
0.0
 11
139.2204530244
 21
249.7558288869
 31
0.0
  0
LINE
  5
93
330
66
100
AcDbEntity
  8
DV1_Default
  6
Continuous
 62
     7
 48
25.4
100
AcDbLine
 10
139.2204530244
 20
249.7558288869
 30
0.0
 11
147.0204530244
 21
249.7558288869
 31
0.0
  0
LINE
  5
94
330
66
100
AcDbEntity
  8
DV1_Default
  6
Continuous
 62
     7
 48
25.4
100
AcDbLine
 10
147.0204530244
 20
256.6558288869
 30
0.0
 11
128.1204530244
 21
256.6558288869
 31
0.0
  0
LINE
  5
95
330
66
100
AcDbEntity
  8
DV1_Default
  6
Continuous
 62
     7
 48
25.4
100
AcDbLine
 10
147.0204530244
 20
250.0558288869
 30
0.0
 11
128.1204530244
 21
250.0558288869
 31
0.0
  0
LINE
  5
96
330
66
100
AcDbEntity
  8
DV1_Default
  6
Continuous
 62
     7
 48
25.4
100
AcDbLine
 10
147.0204530244
 20
257.2558288869
 30
0.0
 11
139.2204530244
 21
257.2558288869
 31
0.0
  0
LINE
  5
97
330
66
100
AcDbEntity
  8
DV1_Default
  6
Continuous
 62
     7
 48
25.4
100
AcDbLine
 10
147.0204530244
 20
249.4558288869
 30
0.0
 11
139.2204530244
 21
249.4558288869
 31
0.0
  0
LINE
  5
98
330
66
100
AcDbEntity
  8
DV1_Default
  6
Continuous
 62
     7
 48
25.4
100
AcDbLine
 10
147.0204530244
 20
259.0595556639
 30
0.0
 11
147.0204530244
 21
258.7595556639
 31
0.0
  0
LINE
  5
99
330
66
100
AcDbEntity
  8
DV1_Default
  6
Continuous
 62
     7
 48
25.4
100
AcDbLine
 10
147.0204530244
 20
258.7595556639
 30
0.0
 11
153.6204530244
 21
258.7595556639
 31
0.0
  0
LINE
  5
9A
330
66
100
AcDbEntity
  8
DV1_Default
  6
Continuous
 62
     7
 48
25.4
100
AcDbLine
 10
153.9204530244
 20
258.4595556639
 30
0.0
 11
153.9204530244
 21
248.2595556639
 31
0.0
  0
LINE
  5
9B
330
66
100
AcDbEntity
  8
DV1_Default
  6
Continuous
 62
     7
 48
25.4
100
AcDbLine
 10
153.6204530244
 20
247.9595556639
 30
0.0
 11
147.0204530244
 21
247.9595556639
 31
0.0
  0
LINE
  5
9C
330
66
100
AcDbEntity
  8
DV1_Default
  6
Continuous
 62
     7
 48
25.4
100
AcDbLine
 10
153.9204530244
 20
258.4595556639
 30
0.0
 11
153.6204530244
 21
258.7595556639
 31
0.0
  0
LINE
  5
9D
330
66
100
AcDbEntity
  8
DV1_Default
  6
Continuous
 62
     7
 48
25.4
100
AcDbLine
 10
153.6204530244
 20
247.9595556639
 30
0.0
 11
153.9204530244
 21
248.2595556639
 31
0.0
  0
LINE
  5
9E
330
66
100
AcDbEntity
  8
DV1_Default
  6
Continuous
 62
     7
 48
25.4
100
AcDbLine
 10
153.6204530244
 20
258.7595556639
 30
0.0
 11
153.6204530244
 21
247.9595556639
 31
0.0
  0
LINE
  5
9F
330
66
100
AcDbEntity
  8
DV1_Default
  6
Continuous
 62
     7
 48
25.4
100
AcDbLine
 10
216.0204506777
 20
384.5791831535
 30
0.0
 11
151.8204506777
 21
384.5791831535
 31
0.0
  0
LINE
  5
A0
330
66
100
AcDbEntity
  8
DV1_Default
  6
Continuous
 62
     7
 48
25.4
100
AcDbLine
 10
150.6204506777
 20
228.0425100604
 30
0.0
 11
150.6204506777
 21
203.3791831535
 31
0.0
  0
LINE
  5
A1
330
66
100
AcDbEntity
  8
DV1_Default
  6
Continuous
 62
     7
 48
25.4
100
AcDbLine
 10
151.8204506777
 20
202.1791831535
 30
0.0
 11
216.6204506777
 21
202.1791831535
 31
0.0
  0
LINE
  5
A2
330
66
100
AcDbEntity
  8
DV1_Default
  6
Continuous
 62
     7
 48
25.4
100
AcDbLine
 10
154.2204506777
 20
360.0425100604
 30
0.0
 11
154.2204506777
 21
246.8082902837
 31
0.0
  0
LINE
  5
A3
330
66
100
AcDbEntity
  8
DV1_Default
  6
Continuous
 62
     7
 48
25.4
100
AcDbLine
 10
154.2204506777
 20
228.0425100604
 30
0.0
 11
140.1204506777
 21
228.0425100604
 31
0.0
  0
LINE
  5
A4
330
66
100
AcDbEntity
  8
DV1_Default
  6
Continuous
 62
     7
 48
25.4
100
AcDbLine
 10
140.1204506777
 20
360.0425100604
 30
0.0
 11
154.2204506777
 21
360.0425100604
 31
0.0
  0
LINE
  5
A5
330
66
100
AcDbEntity
  8
DV1_Default
  6
Continuous
 62
     7
 48
25.4
100
AcDbLine
 10
150.6204506777
 20
383.3791831535
 30
0.0
 11
150.6204506777
 21
360.0425100604
 31
0.0
  0
LINE
  5
A6
330
66
100
AcDbEntity
  8
DV1_Default
  6
Continuous
 62
     7
 48
25.4
100
AcDbLine
 10
216.6245093779
 20
249.5530711959
 30
0.0
 11
216.6245093779
 21
234.4635135466
 31
0.0
  0
LINE
  5
A7
330
66
100
AcDbEntity
  8
DV1_Default
  6
Continuous
 62
     7
 48
25.4
100
AcDbLine
 10
175.8204494084
 20
293.3791850958
 30
0.0
 11
175.8204494084
 21
321.7206535969
 31
0.0
  0
LINE
  5
A8
330
66
100
AcDbEntity
  8
DV1_Default
  6
Continuous
 62
     7
 48
25.4
100
AcDbLine
 10
172.8204494084
 20
321.7206535969
 30
0.0
 11
172.8204494084
 21
293.3791850958
 31
0.0
  0
LINE
  5
A9
330
66
100
AcDbEntity
  8
DV1_Default
  6
Continuous
 62
     7
 48
25.4
100
AcDbLine
 10
159.0204494084
 20
308.3791850958
 30
0.0
 11
172.8204494084
 21
308.3791850958
 31
0.0
  0
LINE
  5
AA
330
66
100
AcDbEntity
  8
DV1_Default
  6
Continuous
 62
     7
 48
25.4
100
AcDbLine
 10
175.8204494084
 20
320.3791850958
 30
0.0
 11
180.497782383
 21
320.3791850958
 31
0.0
  0
LINE
  5
AB
330
66
100
AcDbEntity
  8
DV1_Default
  6
Continuous
 62
     7
 48
25.4
100
AcDbLine
 10
180.497782383
 20
326.6474365335
 30
0.0
 11
180.497782383
 21
293.3791850958
 31
0.0
  0
LINE
  5
AC
330
66
100
AcDbEntity
  8
DV1_Default
  6
Continuous
 62
     7
 48
25.4
100
AcDbLine
 10
178.1053697556
 20
327.2884815649
 30
0.0
 11
178.1053697556
 21
320.3791850958
 31
0.0
  0
LINE
  5
AD
330
66
100
AcDbEntity
  8
DV1_Default
  6
Continuous
 62
     7
 48
25.4
100
AcDbLine
 10
182.2259612185
 20
320.6791806966
 30
0.0
 11
216.6204494084
 21
320.6791806966
 31
0.0
  0
LINE
  5
AE
330
66
100
AcDbEntity
  8
DV1_Default
  6
Continuous
 62
     7
 48
25.4
100
AcDbLine
 10
182.2259612185
 20
320.6791806966
 30
0.0
 11
182.2259612185
 21
293.3791850958
 31
0.0
  0
LINE
  5
AF
330
66
100
AcDbEntity
  8
DV1_Default
  6
Continuous
 62
     7
 48
25.4
100
AcDbLine
 10
182.2259612185
 20
320.6791806966
 30
0.0
 11
180.9531690124
 21
321.9519729027
 31
0.0
  0
LINE
  5
B0
330
66
100
AcDbEntity
  8
DV1_Default
  6
Continuous
 62
     7
 48
25.4
100
AcDbLine
 10
180.9531690124
 20
322.0960040461
 30
0.0
 11
180.9531690124
 21
293.3791850958
 31
0.0
  0
LINE
  5
B1
330
66
100
AcDbEntity
  8
DV1_Default
  6
Continuous
 62
     7
 48
25.4
100
AcDbLine
 10
216.6204506777
 20
202.1791831535
 30
0.0
 11
216.6204506777
 21
293.3791831535
 31
0.0
  0
LINE
  5
B2
330
66
100
AcDbEntity
  8
DV1_Default
  6
Continuous
 62
     7
 48
25.4
100
AcDbLine
 10
216.6204506777
 20
293.3791831535
 30
0.0
 11
216.6204506777
 21
383.9791831535
 31
0.0
  0
LINE
  5
B3
330
66
100
AcDbEntity
  8
DV1_Default
  6
Continuous
 62
     7
 48
25.4
100
AcDbLine
 10
154.2204506777
 20
293.3791831535
 30
0.0
 11
154.2204506777
 21
253.3591831535
 31
0.0
  0
LINE
  5
B4
330
66
100
AcDbEntity
  8
DV1_Default
  6
Continuous
 62
     7
 48
25.4
100
AcDbLine
 10
139.2204506777
 20
359.1425100604
 30
0.0
 11
139.2204506777
 21
256.6558288869
 31
0.0
  0
LINE
  5
B5
330
66
100
AcDbEntity
  8
DV1_Default
  6
Continuous
 62
     7
 48
25.4
100
AcDbLine
 10
177.0204494084
 20
325.7791812112
 30
0.0
 11
177.0204494084
 21
327.5791850958
 31
0.0
  0
LINE
  5
B6
330
66
100
AcDbEntity
  8
DV1_Default
  6
Continuous
 62
     7
 48
25.4
100
AcDbLine
 10
177.0204494084
 20
327.5791850958
 30
0.0
 11
180.497782383
 21
326.6474365335
 31
0.0
  0
LINE
  5
B7
330
66
100
AcDbEntity
  8
DV1_Default
  6
Continuous
 62
     7
 48
25.4
100
AcDbLine
 10
175.8204494084
 20
293.3791812112
 30
0.0
 11
175.8204494084
 21
265.0377127101
 31
0.0
  0
LINE
  5
B8
330
66
100
AcDbEntity
  8
DV1_Default
  6
Continuous
 62
     7
 48
25.4
100
AcDbLine
 10
172.8204494084
 20
265.0377127101
 30
0.0
 11
172.8204494084
 21
293.3791812112
 31
0.0
  0
LINE
  5
B9
330
66
100
AcDbEntity
  8
DV1_Default
  6
Continuous
 62
     7
 48
25.4
100
AcDbLine
 10
159.0204494084
 20
278.3791812112
 30
0.0
 11
172.8204494084
 21
278.3791812112
 31
0.0
  0
LINE
  5
BA
330
66
100
AcDbEntity
  8
DV1_Default
  6
Continuous
 62
     7
 48
25.4
100
AcDbLine
 10
175.8204494084
 20
266.3791812112
 30
0.0
 11
180.497782383
 21
266.3791812112
 31
0.0
  0
LINE
  5
BB
330
66
100
AcDbEntity
  8
DV1_Default
  6
Continuous
 62
     7
 48
25.4
100
AcDbLine
 10
180.497782383
 20
260.1109297735
 30
0.0
 11
180.497782383
 21
293.3791812112
 31
0.0
  0
LINE
  5
BC
330
66
100
AcDbEntity
  8
DV1_Default
  6
Continuous
 62
     7
 48
25.4
100
AcDbLine
 10
178.1053697556
 20
259.4698847421
 30
0.0
 11
178.1053697556
 21
266.3791812112
 31
0.0
  0
LINE
  5
BD
330
66
100
AcDbEntity
  8
DV1_Default
  6
Continuous
 62
     7
 48
25.4
100
AcDbLine
 10
182.2259612185
 20
266.0791856104
 30
0.0
 11
216.6204494084
 21
266.0791856104
 31
0.0
  0
LINE
  5
BE
330
66
100
AcDbEntity
  8
DV1_Default
  6
Continuous
 62
     7
 48
25.4
100
AcDbLine
 10
182.2259612185
 20
266.0791856104
 30
0.0
 11
182.2259612185
 21
293.3791812112
 31
0.0
  0
LINE
  5
BF
330
66
100
AcDbEntity
  8
DV1_Default
  6
Continuous
 62
     7
 48
25.4
100
AcDbLine
 10
182.2259612185
 20
266.0791856104
 30
0.0
 11
180.9531690124
 21
264.8063934043
 31
0.0
  0
LINE
  5
C0
330
66
100
AcDbEntity
  8
DV1_Default
  6
Continuous
 62
     7
 48
25.4
100
AcDbLine
 10
180.9531690124
 20
264.6623622609
 30
0.0
 11
180.9531690124
 21
293.3791812112
 31
0.0
  0
LINE
  5
C1
330
66
100
AcDbEntity
  8
DV1_Default
  6
Continuous
 62
     7
 48
25.4
100
AcDbLine
 10
177.0204494084
 20
260.9791812112
 30
0.0
 11
177.0204494084
 21
259.1791812112
 31
0.0
  0
LINE
  5
C2
330
66
100
AcDbEntity
  8
DV1_Default
  6
Continuous
 62
     7
 48
25.4
100
AcDbLine
 10
177.0204494084
 20
259.1791812112
 30
0.0
 11
180.497782383
 21
260.1109297735
 31
0.0
  0
LINE
  5
C3
330
66
100
AcDbEntity
  8
DV1_Default
  6
Continuous
 62
     7
 48
25.4
100
AcDbLine
 10
168.309195827
 20
260.9791812112
 30
0.0
 11
168.309195827
 21
246.8082902837
 31
0.0
  0
LINE
  5
C4
330
66
100
AcDbEntity
  8
DV1_Default
  6
Continuous
 62
     7
 48
25.4
100
AcDbLine
 10
168.309195827
 20
248.749703707
 30
0.0
 11
180.497782383
 21
248.749703707
 31
0.0
  0
LINE
  5
C5
330
66
100
AcDbEntity
  8
DV1_Default
  6
Continuous
 62
     7
 48
25.4
100
AcDbLine
 10
180.497782383
 20
252.5616041779
 30
0.0
 11
180.497782383
 21
248.749703707
 31
0.0
  0
LINE
  5
C6
330
66
100
AcDbEntity
  8
DV1_Default
  6
Continuous
 62
     7
 48
25.4
100
AcDbLine
 10
185.195856111
 20
252.2632454038
 30
0.0
 11
174.3122924798
 21
252.2632454038
 31
0.0
  0
LINE
  5
C7
330
66
100
AcDbEntity
  8
DV1_Default
  6
Continuous
 62
     7
 48
25.4
100
AcDbLine
 10
174.3122924798
 20
260.113686451
 30
0.0
 11
174.3122924798
 21
250.513686451
 31
0.0
  0
LINE
  5
C8
330
66
100
AcDbEntity
  8
DV1_Default
  6
Continuous
 62
     7
 48
25.4
100
AcDbLine
 10
174.3122924798
 20
257.886659535
 30
0.0
 11
185.195856111
 21
257.886659535
 31
0.0
  0
LINE
  5
C9
330
66
100
AcDbEntity
  8
DV1_Default
  6
Continuous
 62
     7
 48
25.4
100
AcDbLine
 10
174.3122924798
 20
252.5616041779
 30
0.0
 11
185.195856111
 21
252.5616041779
 31
0.0
  0
LINE
  5
CA
330
66
100
AcDbEntity
  8
DV1_Default
  6
CENTER2
 62
     7
 48
25.4
100
AcDbLine
 10
126.0204530244
 20
253.3558288869
 30
0.0
 11
158.0437759047
 21
253.3558288869
 31
0.0
  0
LINE
  5
CB
330
66
100
AcDbEntity
  8
DV1_Default
  6
CENTER2
 62
     7
 48
25.4
100
AcDbLine
 10
206.721694763
 20
260.6659511468
 30
0.0
 11
219.8017419776
 21
260.6659511468
 31
0.0
  0
LINE
  5
CC
330
66
100
AcDbEntity
  8
DV1_Default
  6
Continuous
 62
     7
 48
25.4
100
AcDbLine
 10
216.6204506777
 20
260.6702186032
 30
0.0
 11
216.6204506777
 21
263.6702186032
 31
0.0
  0
LINE
  5
CD
330
66
100
AcDbEntity
  8
DV1_Default
  6
Continuous
 62
     7
 48
25.4
100
AcDbLine
 10
216.6204506777
 20
263.6702186032
 30
0.0
 11
214.2204506777
 21
263.6702186032
 31
0.0
  0
LINE
  5
CE
330
66
100
AcDbEntity
  8
DV1_Default
  6
Continuous
 62
     7
 48
25.4
100
AcDbLine
 10
214.2204506777
 20
257.6702186032
 30
0.0
 11
216.6204506777
 21
257.6702186032
 31
0.0
  0
LINE
  5
CF
330
66
100
AcDbEntity
  8
DV1_Default
  6
Continuous
 62
     7
 48
25.4
100
AcDbLine
 10
216.6204506777
 20
260.6702186032
 30
0.0
 11
216.6204506777
 21
264.2702186032
 31
0.0
  0
LINE
  5
D0
330
66
100
AcDbEntity
  8
DV1_Default
  6
Continuous
 62
     7
 48
25.4
100
AcDbLine
 10
216.6204506777
 20
263.6702186032
 30
0.0
 11
214.2204506777
 21
263.6702186032
 31
0.0
  0
LINE
  5
D1
330
66
100
AcDbEntity
  8
DV1_Default
  6
Continuous
 62
     7
 48
25.4
100
AcDbLine
 10
214.2204506777
 20
263.6702186032
 30
0.0
 11
214.2204506777
 21
257.6702186032
 31
0.0
  0
LINE
  5
D2
330
66
100
AcDbEntity
  8
DV1_Default
  6
Continuous
 62
     7
 48
25.4
100
AcDbLine
 10
213.3531690124
 20
264.6623622609
 30
0.0
 11
213.3531690124
 21
261.8798313017
 31
0.0
  0
LINE
  5
D3
330
66
100
AcDbEntity
  8
DV1_Default
  6
Continuous
 62
     7
 48
25.4
100
AcDbLine
 10
213.3531690124
 20
325.4940793086
 30
0.0
 11
213.9531690124
 21
325.4940793086
 31
0.0
  0
LINE
  5
D4
330
66
100
AcDbEntity
  8
DV1_Default
  6
Continuous
 62
     7
 48
25.4
100
AcDbLine
 10
213.9531690124
 20
325.4940793086
 30
0.0
 11
216.6204506777
 21
323.9541235211
 31
0.0
  0
LINE
  5
D5
330
66
100
AcDbEntity
  8
DV1_Default
  6
Continuous
 62
     7
 48
25.4
100
AcDbLine
 10
185.195856111
 20
258.2150847276
 30
0.0
 11
185.195856111
 21
252.2632454038
 31
0.0
  0
LINE
  5
D6
330
66
100
AcDbEntity
  8
DV1_Default
  6
Continuous
 62
     7
 48
25.4
100
AcDbLine
 10
185.195856111
 20
258.2150847276
 30
0.0
 11
174.3122924798
 21
258.2150847276
 31
0.0
  0
LINE
  5
D7
330
66
100
AcDbEntity
  8
DV1_Default
  6
CENTER2
 62
     7
 48
25.4
100
AcDbLine
 10
187.295856111
 20
255.2391650657
 30
0.0
 11
164.0390728338
 21
255.2391650657
 31
0.0
  0
ARC
  5
D8
330
66
100
AcDbEntity
  8
DV1_Default
  6
Continuous
 62
     7
 48
25.4
100
AcDbCircle
 10
213.6416213889
 20
260.6689352713
 30
0.0
 40
2.920125179336581
100
AcDbArc
 50
281.432930299
 51
78.567069701
  0
LINE
  5
D9
330
66
100
AcDbEntity
  8
DV1_Default
  6
Continuous
 62
     7
 48
25.4
100
AcDbLine
 10
139.99687192
 20
237.2082944589
 30
0.0
 11
139.99687192
 21
246.8082902837
 31
0.0
  0
LINE
  5
DA
330
66
100
AcDbEntity
  8
DV1_Default
  6
Continuous
 62
     7
 48
25.4
100
AcDbLine
 10
139.99687192
 20
246.8082902837
 30
0.0
 11
206.4245093779
 21
246.8082902837
 31
0.0
  0
LINE
  5
DB
330
66
100
AcDbEntity
  8
DV1_Default
  6
Continuous
 62
     7
 48
25.4
100
AcDbLine
 10
139.99687192
 20
237.2082944589
 30
0.0
 11
206.4245093779
 21
237.2082944589
 31
0.0
  0
LINE
  5
DC
330
66
100
AcDbEntity
  8
DV1_Default
  6
Continuous
 62
     7
 48
25.4
100
AcDbLine
 10
139.99687192
 20
246.2082902837
 30
0.0
 11
167.2937918191
 21
246.2082902837
 31
0.0
  0
LINE
  5
DD
330
66
100
AcDbEntity
  8
DV1_Default
  6
Continuous
 62
     7
 48
25.4
100
AcDbLine
 10
139.99687192
 20
237.8082944589
 30
0.0
 11
167.2937918191
 21
237.8082944589
 31
0.0
  0
LINE
  5
DE
330
66
100
AcDbEntity
  8
DV1_Default
  6
Continuous
 62
     7
 48
25.4
100
AcDbLine
 10
206.4245093779
 20
247.1082902837
 30
0.0
 11
193.0412025402
 21
247.1082902837
 31
0.0
  0
LINE
  5
DF
330
66
100
AcDbEntity
  8
DV1_Default
  6
Continuous
 62
     7
 48
25.4
100
AcDbLine
 10
193.0412025402
 20
247.1082902837
 30
0.0
 11
193.0412025402
 21
262.7664779259
 31
0.0
  0
LINE
  5
E0
330
66
100
AcDbEntity
  8
DV1_Default
  6
Continuous
 62
     7
 48
25.4
100
AcDbLine
 10
193.0412025402
 20
262.7664779259
 30
0.0
 11
195.4412025402
 21
262.7664779259
 31
0.0
  0
LINE
  5
E1
330
66
100
AcDbEntity
  8
DV1_Default
  6
Continuous
 62
     7
 48
25.4
100
AcDbLine
 10
195.4412025402
 20
262.7664779259
 30
0.0
 11
195.4412025402
 21
264.6623622609
 31
0.0
  0
LINE
  5
E2
330
66
100
AcDbEntity
  8
DV1_Default
  6
Continuous
 62
     7
 48
25.4
100
AcDbLine
 10
206.4245093779
 20
247.1082902837
 30
0.0
 11
206.4245093779
 21
247.4082902837
 31
0.0
  0
LINE
  5
E3
330
66
100
AcDbEntity
  8
DV1_Default
  6
Continuous
 62
     7
 48
25.4
100
AcDbLine
 10
206.4245093779
 20
247.4082902837
 30
0.0
 11
193.2245093779
 21
247.4082902837
 31
0.0
  0
LINE
  5
E4
330
66
100
AcDbEntity
  8
DV1_Default
  6
Continuous
 62
     7
 48
25.4
100
AcDbLine
 10
193.2245093779
 20
247.4082902837
 30
0.0
 11
193.2245093779
 21
261.7705382211
 31
0.0
  0
LINE
  5
E5
330
66
100
AcDbEntity
  8
DV1_Default
  6
Continuous
 62
     7
 48
25.4
100
AcDbLine
 10
193.2245093779
 20
261.7705382211
 30
0.0
 11
199.8245093779
 21
261.7705382211
 31
0.0
  0
LINE
  5
E6
330
66
100
AcDbEntity
  8
DV1_Default
  6
Continuous
 62
     7
 48
25.4
100
AcDbLine
 10
199.8245093779
 20
261.7705382211
 30
0.0
 11
199.8245093779
 21
264.6623622609
 31
0.0
  0
LINE
  5
E7
330
66
100
AcDbEntity
  8
DV1_Default
  6
Continuous
 62
     7
 48
25.4
100
AcDbLine
 10
199.8245093779
 20
262.7664779259
 30
0.0
 11
213.3531690124
 21
262.7664779259
 31
0.0
  0
LINE
  5
E8
330
66
100
AcDbEntity
  8
DV1_Default
  6
Continuous
 62
     7
 48
25.4
100
AcDbLine
 10
154.2204506777
 20
236.9082944589
 30
0.0
 11
206.4245093779
 21
236.9082944589
 31
0.0
  0
LINE
  5
E9
330
66
100
AcDbEntity
  8
DV1_Default
  6
Continuous
 62
     7
 48
25.4
100
AcDbLine
 10
139.2204506777
 20
250.0558288869
 30
0.0
 11
139.2204506777
 21
228.9425100604
 31
0.0
  0
LINE
  5
EA
330
66
100
AcDbEntity
  8
DV1_Default
  6
Continuous
 62
     7
 48
25.4
100
AcDbLine
 10
154.2204506777
 20
236.9082944589
 30
0.0
 11
154.2204506777
 21
228.0425100604
 31
0.0
  0
LINE
  5
EB
330
66
100
AcDbEntity
  8
DV1_Default
  6
Continuous
 62
     7
 48
25.4
100
AcDbLine
 10
213.3531690124
 20
264.6623622609
 30
0.0
 11
180.497782383
 21
264.6623622609
 31
0.0
  0
LINE
  5
EC
330
66
100
AcDbEntity
  8
DV1_Default
  6
Continuous
 62
     7
 48
25.4
100
AcDbLine
 10
213.3531690124
 20
322.0960040461
 30
0.0
 11
180.497782383
 21
322.0960040461
 31
0.0
  0
LINE
  5
ED
330
66
100
AcDbEntity
  8
DV1_Default
  6
Continuous
 62
     7
 48
25.4
100
AcDbLine
 10
168.9122924798
 20
325.7791812112
 30
0.0
 11
168.9122924798
 21
338.3791850958
 31
0.0
  0
LINE
  5
EE
330
66
100
AcDbEntity
  8
DV1_Default
  6
Continuous
 62
     7
 48
25.4
100
AcDbLine
 10
154.2204506777
 20
338.3791850958
 30
0.0
 11
170.9671944605
 21
338.3791850958
 31
0.0
  0
SPLINE
  5
EF
330
66
100
AcDbEntity
  8
DV1_Default
  6
Continuous
 62
     7
 48
25.4
100
AcDbSpline
210
0.0
220
0.0
230
1.0
 70
     8
 71
     3
 72
    13
 73
     9
 74
     0
 42
0.0000000001
 43
0.0000000001
 40
0.0
 40
0.0
 40
0.0
 40
0.0
 40
0.1935421433162046
 40
0.4213010687685893
 40
0.6945957952692566
 40
0.766766824542002
 40
0.8773333933783988
 40
0.9999999999999999
 40
0.9999999999999999
 40
0.9999999999999999
 40
0.9999999999999999
 10
150.620435169243
 20
370.0388493446046
 30
0.0
 10
159.5325345303417
 20
364.0266142084769
 30
0.0
 10
160.2181569084428
 20
361.5450880398215
 30
0.0
 10
179.941046258902
 20
353.2360617597125
 30
0.0
 10
167.6685974843446
 20
339.132112374544
 30
0.0
 10
175.5083581621337
 20
328.9809374269133
 30
0.0
 10
185.3110732014983
 20
330.4979069980728
 30
0.0
 10
185.2447851170995
 20
324.8205084634405
 30
0.0
 10
186.1813692051544
 20
322.0960040703651
 30
0.0
  0
LINE
  5
F0
330
66
100
AcDbEntity
  8
DV1_Default
  6
Continuous
 62
     7
 48
25.4
100
AcDbLine
 10
217.5204506777
 20
385.1791831535
 30
0.0
 11
247.2204506777
 21
385.1791831535
 31
0.0
  0
LINE
  5
F1
330
66
100
AcDbEntity
  8
DV1_Default
  6
Continuous
 62
     7
 48
25.4
100
AcDbLine
 10
247.2204506777
 20
385.1791831535
 30
0.0
 11
247.2204506777
 21
318.5791831535
 31
0.0
  0
LINE
  5
F2
330
66
100
AcDbEntity
  8
DV1_Default
  6
Continuous
 62
     7
 48
25.4
100
AcDbLine
 10
247.2204506777
 20
318.5791831535
 30
0.0
 11
218.4204506777
 21
318.5791831535
 31
0.0
  0
LINE
  5
F3
330
66
100
AcDbEntity
  8
DV1_Default
  6
Continuous
 62
     7
 48
25.4
100
AcDbLine
 10
217.2204506777
 20
324.4435395794
 30
0.0
 11
217.2204506777
 21
384.8791831535
 31
0.0
  0
LINE
  5
F4
330
66
100
AcDbEntity
  8
DV1_Default
  6
CENTER2
 62
     7
 48
25.4
100
AcDbLine
 10
213.6356742086
 20
354.5791831535
 30
0.0
 11
250.5695459851
 21
354.5791831535
 31
0.0
  0
LINE
  5
F5
330
66
100
AcDbEntity
  8
DV1_Default
  6
Continuous
 62
     7
 48
25.4
100
AcDbLine
 10
247.2204506777
 20
380.0791831535
 30
0.0
 11
227.4204506777
 21
380.0791831535
 31
0.0
  0
LINE
  5
F6
330
66
100
AcDbEntity
  8
DV1_Default
  6
Continuous
 62
     7
 48
25.4
100
AcDbLine
 10
227.4204506777
 20
365.0791831535
 30
0.0
 11
247.2204506777
 21
365.0791831535
 31
0.0
  0
LINE
  5
F7
330
66
100
AcDbEntity
  8
DV1_Default
  6
Continuous
 62
     7
 48
25.4
100
AcDbLine
 10
217.2204506777
 20
384.8791831535
 30
0.0
 11
217.5204506777
 21
385.1791831535
 31
0.0
  0
LINE
  5
F8
330
66
100
AcDbEntity
  8
DV1_Default
  6
Continuous
 62
     7
 48
25.4
100
AcDbLine
 10
216.0204506777
 20
384.5791831535
 30
0.0
 11
216.6204506777
 21
383.9791831535
 31
0.0
  0
LINE
  5
F9
330
66
100
AcDbEntity
  8
DV1_Default
  6
Continuous
 62
     7
 48
25.4
100
AcDbLine
 10
217.5204506777
 20
385.1791831535
 30
0.0
 11
217.5204506777
 21
324.1362952077
 31
0.0
  0
ARC
  5
FA
330
66
100
AcDbEntity
  8
DV1_Default
  6
Continuous
 62
     7
 48
25.4
100
AcDbCircle
 10
216.8871113458
 20
383.6031026695
 30
0.0
 40
0.9761197984141761
100
AcDbArc
 50
49.5462813706
 51
130.4537186294
  0
LINE
  5
FB
330
66
100
AcDbEntity
  8
DV1_Default
  6
Continuous
 62
     7
 48
25.4
100
AcDbLine
 10
218.4204506777
 20
318.5791831535
 30
0.0
 11
218.4204506777
 21
323.9541235211
 31
0.0
  0
ARC
  5
FC
330
66
100
AcDbEntity
  8
DV1_Default
  6
Continuous
 62
     7
 48
25.4
100
AcDbCircle
 10
218.1799780636
 20
325.080357311
 30
0.0
 40
1.151620435565075
100
AcDbArc
 50
213.5713759273
 51
282.0527642758
  0
LINE
  5
FD
330
66
100
AcDbEntity
  8
DV1_Default
  6
Continuous
 62
     7
 48
25.4
100
AcDbLine
 10
219.6204506777
 20
360.0151806882
 30
0.0
 11
219.6204506777
 21
367.1769303283
 31
0.0
  0
LINE
  5
FE
330
66
100
AcDbEntity
  8
DV1_Default
  6
Continuous
 62
     7
 48
25.4
100
AcDbLine
 10
217.5204506777
 20
381.2791831535
 30
0.0
 11
219.3204506777
 21
381.2791831535
 31
0.0
  0
LINE
  5
FF
330
66
100
AcDbEntity
  8
DV1_Default
  6
Continuous
 62
     7
 48
25.4
100
AcDbLine
 10
219.3204506777
 20
381.2791831535
 30
0.0
 11
219.3204506777
 21
345.9129278631
 31
0.0
  0
LINE
  5
100
330
66
100
AcDbEntity
  8
DV1_Default
  6
Continuous
 62
     7
 48
25.4
100
AcDbLine
 10
226.8204506777
 20
377.6769303283
 30
0.0
 11
226.8204506777
 21
367.4769303283
 31
0.0
  0
LINE
  5
101
330
66
100
AcDbEntity
  8
DV1_Default
  6
Continuous
 62
     7
 48
25.4
100
AcDbLine
 10
227.4204506777
 20
377.9769303283
 30
0.0
 11
219.6204506777
 21
377.9769303283
 31
0.0
  0
LINE
  5
102
330
66
100
AcDbEntity
  8
DV1_Default
  6
Continuous
 62
     7
 48
25.4
100
AcDbLine
 10
219.6204506777
 20
377.9769303283
 30
0.0
 11
219.6204506777
 21
385.1791831535
 31
0.0
  0
LINE
  5
103
330
66
100
AcDbEntity
  8
DV1_Default
  6
Continuous
 62
     7
 48
25.4
100
AcDbLine
 10
227.4204506777
 20
380.0791831535
 30
0.0
 11
227.4204506777
 21
365.0791831535
 31
0.0
  0
LINE
  5
104
330
66
100
AcDbEntity
  8
DV1_Default
  6
Continuous
 62
     7
 48
25.4
100
AcDbLine
 10
227.4204506777
 20
377.6769303283
 30
0.0
 11
219.3204506777
 21
377.6769303283
 31
0.0
  0
LINE
  5
105
330
66
100
AcDbEntity
  8
DV1_Default
  6
Continuous
 62
     7
 48
25.4
100
AcDbLine
 10
219.3204506777
 20
377.3769303283
 30
0.0
 11
226.8204506777
 21
377.3769303283
 31
0.0
  0
LINE
  5
106
330
66
100
AcDbEntity
  8
DV1_Default
  6
Continuous
 62
     7
 48
25.4
100
AcDbLine
 10
227.4204506777
 20
367.4769303283
 30
0.0
 11
227.4204506777
 21
367.1769303283
 31
0.0
  0
LINE
  5
107
330
66
100
AcDbEntity
  8
DV1_Default
  6
Continuous
 62
     7
 48
25.4
100
AcDbLine
 10
227.4204506777
 20
367.1769303283
 30
0.0
 11
219.6204506777
 21
367.1769303283
 31
0.0
  0
LINE
  5
108
330
66
100
AcDbEntity
  8
DV1_Default
  6
Continuous
 62
     7
 48
25.4
100
AcDbLine
 10
219.3204506777
 20
367.4769303283
 30
0.0
 11
227.4204506777
 21
367.4769303283
 31
0.0
  0
LINE
  5
109
330
66
100
AcDbEntity
  8
DV1_Default
  6
Continuous
 62
     7
 48
25.4
100
AcDbLine
 10
219.3204506777
 20
367.7769303283
 30
0.0
 11
226.8204506777
 21
367.7769303283
 31
0.0
  0
LINE
  5
10A
330
66
100
AcDbEntity
  8
DV1_Default
  6
Continuous
 62
     7
 48
25.4
100
AcDbLine
 10
227.4204506777
 20
380.0791831535
 30
0.0
 11
227.4204506777
 21
379.7791831535
 31
0.0
  0
LINE
  5
10B
330
66
100
AcDbEntity
  8
DV1_Default
  6
Continuous
 62
     7
 48
25.4
100
AcDbLine
 10
227.4204506777
 20
379.7791831535
 30
0.0
 11
235.8204506777
 21
379.7791831535
 31
0.0
  0
LINE
  5
10C
330
66
100
AcDbEntity
  8
DV1_Default
  6
Continuous
 62
     7
 48
25.4
100
AcDbLine
 10
236.4204506777
 20
379.1791831535
 30
0.0
 11
236.4204506777
 21
365.9791831535
 31
0.0
  0
LINE
  5
10D
330
66
100
AcDbEntity
  8
DV1_Default
  6
Continuous
 62
     7
 48
25.4
100
AcDbLine
 10
235.8204506777
 20
365.3791831535
 30
0.0
 11
227.4204506777
 21
365.3791831535
 31
0.0
  0
LINE
  5
10E
330
66
100
AcDbEntity
  8
DV1_Default
  6
Continuous
 62
     7
 48
25.4
100
AcDbLine
 10
235.8204506777
 20
379.7791831535
 30
0.0
 11
236.4204506777
 21
379.1791831535
 31
0.0
  0
LINE
  5
10F
330
66
100
AcDbEntity
  8
DV1_Default
  6
Continuous
 62
     7
 48
25.4
100
AcDbLine
 10
235.8204506777
 20
365.3791831535
 30
0.0
 11
236.4204506777
 21
365.9791831535
 31
0.0
  0
LINE
  5
110
330
66
100
AcDbEntity
  8
DV1_Default
  6
Continuous
 62
     7
 48
25.4
100
AcDbLine
 10
235.8204506777
 20
379.7791831535
 30
0.0
 11
235.8204506777
 21
365.3791831535
 31
0.0
  0
LINE
  5
111
330
66
100
AcDbEntity
  8
DV1_Default
  6
Continuous
 62
     7
 48
25.4
100
AcDbLine
 10
247.2204506777
 20
347.1129278631
 30
0.0
 11
227.4204506777
 21
347.1129278631
 31
0.0
  0
LINE
  5
112
330
66
100
AcDbEntity
  8
DV1_Default
  6
Continuous
 62
     7
 48
25.4
100
AcDbLine
 10
227.4204506777
 20
362.1129278631
 30
0.0
 11
247.2204506777
 21
362.1129278631
 31
0.0
  0
LINE
  5
113
330
66
100
AcDbEntity
  8
DV1_Default
  6
Continuous
 62
     7
 48
25.4
100
AcDbLine
 10
217.5204506777
 20
345.9129278631
 30
0.0
 11
219.3204506777
 21
345.9129278631
 31
0.0
  0
LINE
  5
114
330
66
100
AcDbEntity
  8
DV1_Default
  6
Continuous
 62
     7
 48
25.4
100
AcDbLine
 10
226.8204506777
 20
349.5151806882
 30
0.0
 11
226.8204506777
 21
359.7151806882
 31
0.0
  0
LINE
  5
115
330
66
100
AcDbEntity
  8
DV1_Default
  6
Continuous
 62
     7
 48
25.4
100
AcDbLine
 10
227.4204506777
 20
349.2151806882
 30
0.0
 11
219.6204506777
 21
349.2151806882
 31
0.0
  0
LINE
  5
116
330
66
100
AcDbEntity
  8
DV1_Default
  6
Continuous
 62
     7
 48
25.4
100
AcDbLine
 10
227.4204506777
 20
347.1129278631
 30
0.0
 11
227.4204506777
 21
362.1129278631
 31
0.0
  0
LINE
  5
117
330
66
100
AcDbEntity
  8
DV1_Default
  6
Continuous
 62
     7
 48
25.4
100
AcDbLine
 10
227.4204506777
 20
349.5151806882
 30
0.0
 11
219.3204506777
 21
349.5151806882
 31
0.0
  0
LINE
  5
118
330
66
100
AcDbEntity
  8
DV1_Default
  6
Continuous
 62
     7
 48
25.4
100
AcDbLine
 10
219.3204506777
 20
349.8151806882
 30
0.0
 11
226.8204506777
 21
349.8151806882
 31
0.0
  0
LINE
  5
119
330
66
100
AcDbEntity
  8
DV1_Default
  6
Continuous
 62
     7
 48
25.4
100
AcDbLine
 10
227.4204506777
 20
359.7151806882
 30
0.0
 11
227.4204506777
 21
360.0151806882
 31
0.0
  0
LINE
  5
11A
330
66
100
AcDbEntity
  8
DV1_Default
  6
Continuous
 62
     7
 48
25.4
100
AcDbLine
 10
227.4204506777
 20
360.0151806882
 30
0.0
 11
219.6204506777
 21
360.0151806882
 31
0.0
  0
LINE
  5
11B
330
66
100
AcDbEntity
  8
DV1_Default
  6
Continuous
 62
     7
 48
25.4
100
AcDbLine
 10
219.3204506777
 20
359.7151806882
 30
0.0
 11
227.4204506777
 21
359.7151806882
 31
0.0
  0
LINE
  5
11C
330
66
100
AcDbEntity
  8
DV1_Default
  6
Continuous
 62
     7
 48
25.4
100
AcDbLine
 10
219.3204506777
 20
359.4151806882
 30
0.0
 11
226.8204506777
 21
359.4151806882
 31
0.0
  0
LINE
  5
11D
330
66
100
AcDbEntity
  8
DV1_Default
  6
Continuous
 62
     7
 48
25.4
100
AcDbLine
 10
227.4204506777
 20
347.1129278631
 30
0.0
 11
227.4204506777
 21
347.4129278631
 31
0.0
  0
LINE
  5
11E
330
66
100
AcDbEntity
  8
DV1_Default
  6
Continuous
 62
     7
 48
25.4
100
AcDbLine
 10
227.4204506777
 20
347.4129278631
 30
0.0
 11
235.8204506777
 21
347.4129278631
 31
0.0
  0
LINE
  5
11F
330
66
100
AcDbEntity
  8
DV1_Default
  6
Continuous
 62
     7
 48
25.4
100
AcDbLine
 10
236.4204506777
 20
348.0129278631
 30
0.0
 11
236.4204506777
 21
361.2129278631
 31
0.0
  0
LINE
  5
120
330
66
100
AcDbEntity
  8
DV1_Default
  6
Continuous
 62
     7
 48
25.4
100
AcDbLine
 10
235.8204506777
 20
361.8129278631
 30
0.0
 11
227.4204506777
 21
361.8129278631
 31
0.0
  0
LINE
  5
121
330
66
100
AcDbEntity
  8
DV1_Default
  6
Continuous
 62
     7
 48
25.4
100
AcDbLine
 10
235.8204506777
 20
347.4129278631
 30
0.0
 11
236.4204506777
 21
348.0129278631
 31
0.0
  0
LINE
  5
122
330
66
100
AcDbEntity
  8
DV1_Default
  6
Continuous
 62
     7
 48
25.4
100
AcDbLine
 10
235.8204506777
 20
361.8129278631
 30
0.0
 11
236.4204506777
 21
361.2129278631
 31
0.0
  0
LINE
  5
123
330
66
100
AcDbEntity
  8
DV1_Default
  6
Continuous
 62
     7
 48
25.4
100
AcDbLine
 10
235.8204506777
 20
347.4129278631
 30
0.0
 11
235.8204506777
 21
361.8129278631
 31
0.0
  0
LINE
  5
124
330
66
100
AcDbEntity
  8
DV1_Default
  6
Continuous
 62
     7
 48
25.4
100
AcDbLine
 10
219.6204506777
 20
349.2151806882
 30
0.0
 11
219.6204506777
 21
318.5791831535
 31
0.0
  0
LINE
  5
125
330
66
100
AcDbEntity
  8
DV1_Default
  6
CENTER2
 62
     7
 48
25.4
100
AcDbLine
 10
137.89687192
 20
242.0082923713
 30
0.0
 11
226.4708698679
 21
242.0082923713
 31
0.0
  0
LINE
  5
126
330
66
100
AcDbEntity
  8
DV1_Default
  6
Continuous
 62
     7
 48
25.4
100
AcDbLine
 10
159.9204494084
 20
325.7791812112
 30
0.0
 11
177.0204494084
 21
325.7791812112
 31
0.0
  0
LINE
  5
127
330
66
100
AcDbEntity
  8
DV1_Default
  6
Continuous
 62
     7
 48
25.4
100
AcDbLine
 10
159.0204494084
 20
293.3791812112
 30
0.0
 11
159.0204494084
 21
324.8791812112
 31
0.0
  0
LINE
  5
128
330
66
100
AcDbEntity
  8
DV1_Default
  6
Continuous
 62
     7
 48
25.4
100
AcDbLine
 10
159.9204494084
 20
260.9791812112
 30
0.0
 11
177.0204494084
 21
260.9791812112
 31
0.0
  0
LINE
  5
129
330
66
100
AcDbEntity
  8
DV1_Default
  6
Continuous
 62
     7
 48
25.4
100
AcDbLine
 10
159.0204494084
 20
293.3791812112
 30
0.0
 11
159.0204494084
 21
261.8791812112
 31
0.0
  0
LINE
  5
12A
330
66
100
AcDbEntity
  8
DV1_Default
  6
Continuous
 62
     7
 48
25.4
100
AcDbLine
 10
139.2204506777
 20
228.9425100604
 30
0.0
 11
140.1204506777
 21
228.0425100604
 31
0.0
  0
LINE
  5
12B
330
66
100
AcDbEntity
  8
DV1_Default
  6
Continuous
 62
     7
 48
25.4
100
AcDbLine
 10
139.2204506777
 20
359.1425100604
 30
0.0
 11
140.1204506777
 21
360.0425100604
 31
0.0
  0
LINE
  5
12C
330
66
100
AcDbEntity
  8
DV1_Default
  6
Continuous
 62
     7
 48
25.4
100
AcDbLine
 10
159.0204494084
 20
261.8791812112
 30
0.0
 11
159.9204494084
 21
260.9791812112
 31
0.0
  0
LINE
  5
12D
330
66
100
AcDbEntity
  8
DV1_Default
  6
Continuous
 62
     7
 48
25.4
100
AcDbLine
 10
159.0204494084
 20
324.8791812112
 30
0.0
 11
159.9204494084
 21
325.7791812112
 31
0.0
  0
LINE
  5
12E
330
66
100
AcDbEntity
  8
DV1_Default
  6
Continuous
 62
     7
 48
25.4
100
AcDbLine
 10
150.6204506777
 20
383.3791831535
 30
0.0
 11
151.8204506777
 21
384.5791831535
 31
0.0
  0
LINE
  5
12F
330
66
100
AcDbEntity
  8
DV1_Default
  6
Continuous
 62
     7
 48
25.4
100
AcDbLine
 10
151.8204506777
 20
202.1791831535
 30
0.0
 11
150.6204506777
 21
203.3791831535
 31
0.0
  0
LINE
  5
130
330
66
100
AcDbEntity
  8
DV1_Default
  6
Continuous
 62
     7
 48
25.4
100
AcDbLine
 10
172.8204494084
 20
293.3791812112
 30
0.0
 11
172.8204494084
 21
320.3791812112
 31
0.0
  0
LINE
  5
131
330
66
100
AcDbEntity
  8
DV1_Default
  6
Continuous
 62
     7
 48
25.4
100
AcDbLine
 10
172.8204494084
 20
320.3791812112
 30
0.0
 11
159.0204494084
 21
320.3791812112
 31
0.0
  0
LINE
  5
132
330
66
100
AcDbEntity
  8
DV1_Default
  6
Continuous
 62
     7
 48
25.4
100
AcDbLine
 10
159.0204494084
 20
266.3791812112
 30
0.0
 11
172.8204494084
 21
266.3791812112
 31
0.0
  0
LINE
  5
133
330
66
100
AcDbEntity
  8
DV1_Default
  6
Continuous
 62
     7
 48
25.4
100
AcDbLine
 10
172.8204494084
 20
266.3791812112
 30
0.0
 11
172.8204494084
 21
265.4791812112
 31
0.0
  0
LINE
  5
134
330
66
100
AcDbEntity
  8
DV1_Default
  6
Continuous
 62
     7
 48
25.4
100
AcDbLine
 10
159.0204494084
 20
267.2791812112
 30
0.0
 11
172.8204494084
 21
267.2791812112
 31
0.0
  0
LINE
  5
135
330
66
100
AcDbEntity
  8
DV1_Default
  6
Continuous
 62
     7
 48
25.4
100
AcDbLine
 10
159.0204494084
 20
319.4791812112
 30
0.0
 11
172.8204494084
 21
319.4791812112
 31
0.0
  0
LINE
  5
136
330
66
100
AcDbEntity
  8
DV1_Default
  6
Continuous
 62
     7
 48
25.4
100
AcDbLine
 10
175.8204494084
 20
321.7206535969
 30
0.0
 11
172.8204494084
 21
321.7206535969
 31
0.0
  0
LINE
  5
137
330
66
100
AcDbEntity
  8
DV1_Default
  6
Continuous
 62
     7
 48
25.4
100
AcDbLine
 10
175.8204494084
 20
265.0377127101
 30
0.0
 11
172.8204494084
 21
265.0377127101
 31
0.0
  0
LINE
  5
138
330
66
100
AcDbEntity
  8
DV1_Default
  6
CENTER2
 62
     7
 48
25.4
100
AcDbLine
 10
213.6356742086
 20
372.5791831535
 30
0.0
 11
250.5695459851
 21
372.5791831535
 31
0.0
  0
LINE
  5
139
330
66
100
AcDbEntity
  8
DV1_Default
  6
Continuous
 62
     7
 48
25.4
100
AcDbLine
 10
216.6204506777
 20
330.1591831535
 30
0.0
 11
213.3531690124
 21
330.1591831535
 31
0.0
  0
LINE
  5
13A
330
66
100
AcDbEntity
  8
DV1_Default
  6
Continuous
 62
     7
 48
25.4
100
AcDbLine
 10
213.3531690124
 20
330.1591831535
 30
0.0
 11
213.3531690124
 21
322.0960040461
 31
0.0
  0
LINE
  5
13B
330
66
100
AcDbEntity
  8
DV1_Default
  6
Continuous
 62
     7
 48
25.4
100
AcDbLine
 10
180.497782383
 20
260.1109297735
 30
0.0
 11
180.497782383
 21
257.886659535
 31
0.0
  0
LINE
  5
13C
330
66
100
AcDbEntity
  8
DV1_Default
  6
Continuous
 62
     7
 48
25.4
100
AcDbLine
 10
139.2204506777
 20
325.2916831535
 30
0.0
 11
151.2204506777
 21
323.8182684227
 31
0.0
  0
LINE
  5
13D
330
66
100
AcDbEntity
  8
DV1_Default
  6
Continuous
 62
     7
 48
25.4
100
AcDbLine
 10
151.2204506777
 20
323.8182684227
 30
0.0
 11
154.2204506777
 21
323.8182684227
 31
0.0
  0
LINE
  5
13E
330
66
100
AcDbEntity
  8
DV1_Default
  6
Continuous
 62
     7
 48
25.4
100
AcDbLine
 10
139.2204506777
 20
261.4666831535
 30
0.0
 11
151.2204506777
 21
262.9400978843
 31
0.0
  0
LINE
  5
13F
330
66
100
AcDbEntity
  8
DV1_Default
  6
Continuous
 62
     7
 48
25.4
100
AcDbLine
 10
151.2204506777
 20
262.9400978843
 30
0.0
 11
154.2204506777
 21
262.9400978843
 31
0.0
  0
LINE
  5
140
330
66
100
AcDbEntity
  8
DV1_Default
  6
Continuous
 62
     7
 48
25.4
100
AcDbLine
 10
151.2204506777
 20
323.8182684227
 30
0.0
 11
151.2204506777
 21
262.9400978843
 31
0.0
  0
LINE
  5
141
330
66
100
AcDbEntity
  8
DV1_Default
  6
Continuous
 62
     7
 48
25.4
100
AcDbLine
 10
216.6204506777
 20
293.3791831535
 30
0.0
 11
216.6204506777
 21
256.5991831535
 31
0.0
  0
LINE
  5
142
330
66
100
AcDbEntity
  8
DV1_Default
  6
Continuous
 62
     7
 48
25.4
100
AcDbLine
 10
216.6204506777
 20
256.5991831535
 30
0.0
 11
213.3531690124
 21
256.5991831535
 31
0.0
  0
LINE
  5
143
330
66
100
AcDbEntity
  8
DV1_Default
  6
Continuous
 62
     7
 48
25.4
100
AcDbLine
 10
213.3531690124
 20
256.5991831535
 30
0.0
 11
213.3531690124
 21
259.4798313017
 31
0.0
  0
ENDBLK
  5
145
330
66
100
AcDbEntity
  8
0
100
AcDbBlockEnd
  0
BLOCK
  5
1CD
330
146
100
AcDbEntity
  8
0
100
AcDbBlockBegin
  2
SE1
 70
     0
 71
     0
 10
0.0
 20
0.0
 30
0.0
  3
SE1
  1

  0
LINE
  5
149
330
146
100
AcDbEntity
  8
DV2_Default
  6
CENTER2
 62
     7
 48
25.4
100
AcDbLine
 10
334.2476982834
 20
292.5828766702
 30
0.0
 11
538.4407607007
 21
292.5828766702
 31
0.0
  0
LINE
  5
14A
330
146
100
AcDbEntity
  8
DV2_Default
  6
CENTER2
 62
     7
 48
25.4
100
AcDbLine
 10
433.7513267327
 20
392.1919319781
 30
0.0
 11
433.7513267327
 21
191.3535512045
 31
0.0
  0
CIRCLE
  5
14B
330
146
100
AcDbEntity
  8
DV2_Default
  6
Continuous
 62
     7
 48
25.4
100
AcDbCircle
 10
433.7513267327
 20
292.5828766702
 30
0.0
 40
15.0
  0
LINE
  5
14C
330
146
100
AcDbEntity
  8
DV2_Default
  6
Continuous
 62
     7
 48
25.4
100
AcDbLine
 10
417.5513267327
 20
383.7828766702
 30
0.0
 11
417.5513267327
 21
323.7828766702
 31
0.0
  0
LINE
  5
14D
330
146
100
AcDbEntity
  8
DV2_Default
  6
Continuous
 62
     7
 48
25.4
100
AcDbLine
 10
449.9513267327
 20
323.7828766702
 30
0.0
 11
449.9513267327
 21
383.7828766702
 31
0.0
  0
LINE
  5
14E
330
146
100
AcDbEntity
  8
DV2_Default
  6
Continuous
 62
     7
 48
25.4
100
AcDbLine
 10
417.5513267327
 20
383.7828766702
 30
0.0
 11
408.991818086
 21
381.0017237208
 31
0.0
  0
LINE
  5
14F
330
146
100
AcDbEntity
  8
DV2_Default
  6
Continuous
 62
     7
 48
25.4
100
AcDbLine
 10
408.991818086
 20
381.0017237208
 30
0.0
 11
408.991818086
 21
380.3576266361
 31
0.0
  0
LINE
  5
150
330
146
100
AcDbEntity
  8
DV2_Default
  6
Continuous
 62
     7
 48
25.4
100
AcDbLine
 10
449.9519931065
 20
383.7828766702
 30
0.0
 11
458.5115017531
 21
381.0017237208
 31
0.0
  0
LINE
  5
151
330
146
100
AcDbEntity
  8
DV2_Default
  6
Continuous
 62
     7
 48
25.4
100
AcDbLine
 10
458.5115017531
 20
381.0017237208
 30
0.0
 11
458.5115017531
 21
380.3576266361
 31
0.0
  0
LINE
  5
152
330
146
100
AcDbEntity
  8
DV2_Default
  6
Continuous
 62
     7
 48
25.4
100
AcDbLine
 10
418.7513267327
 20
321.9828766702
 30
0.0
 11
411.6513629318
 21
321.9828766702
 31
0.0
  0
LINE
  5
153
330
146
100
AcDbEntity
  8
DV2_Default
  6
Continuous
 62
     7
 48
25.4
100
AcDbLine
 10
414.2749718376
 20
323.7828766702
 30
0.0
 11
418.7513267327
 21
323.7828766702
 31
0.0
  0
LINE
  5
154
330
146
100
AcDbEntity
  8
DV2_Default
  6
Continuous
 62
     7
 48
25.4
100
AcDbLine
 10
455.8512905335
 20
321.9828766702
 30
0.0
 11
448.7513267327
 21
321.9828766702
 31
0.0
  0
LINE
  5
155
330
146
100
AcDbEntity
  8
DV2_Default
  6
Continuous
 62
     7
 48
25.4
100
AcDbLine
 10
448.7513267327
 20
323.7828766702
 30
0.0
 11
453.2276816278
 21
323.7828766702
 31
0.0
  0
ARC
  5
156
330
146
100
AcDbEntity
  8
DV2_Default
  6
Continuous
 62
     7
 48
25.4
100
AcDbCircle
 10
433.7513267327
 20
292.5828766702
 30
0.0
 40
27.3
100
AcDbArc
 50
112.619864948
 51
67.380135052
  0
LINE
  5
157
330
146
100
AcDbEntity
  8
DV2_Default
  6
Continuous
 62
     7
 48
25.4
100
AcDbLine
 10
418.7513267327
 20
383.7828766702
 30
0.0
 11
417.5513267327
 21
383.7828766702
 31
0.0
  0
LINE
  5
158
330
146
100
AcDbEntity
  8
DV2_Default
  6
Continuous
 62
     7
 48
25.4
100
AcDbLine
 10
449.9513267327
 20
383.7828766702
 30
0.0
 11
448.7513267327
 21
383.7828766702
 31
0.0
  0
LINE
  5
159
330
146
100
AcDbEntity
  8
DV2_Default
  6
Continuous
 62
     7
 48
25.4
100
AcDbLine
 10
411.6513629318
 20
321.9828766702
 30
0.0
 11
418.7513267327
 21
321.9828766702
 31
0.0
  0
LINE
  5
15A
330
146
100
AcDbEntity
  8
DV2_Default
  6
Continuous
 62
     7
 48
25.4
100
AcDbLine
 10
414.2749718376
 20
323.7828766702
 30
0.0
 11
418.7513267327
 21
323.7828766702
 31
0.0
  0
LINE
  5
15B
330
146
100
AcDbEntity
  8
DV2_Default
  6
Continuous
 62
     7
 48
25.4
100
AcDbLine
 10
448.7513267327
 20
323.7828766702
 30
0.0
 11
453.2276816278
 21
323.7828766702
 31
0.0
  0
LINE
  5
15C
330
146
100
AcDbEntity
  8
DV2_Default
  6
Continuous
 62
     7
 48
25.4
100
AcDbLine
 10
448.7513267327
 20
321.9828766702
 30
0.0
 11
455.8512905335
 21
321.9828766702
 31
0.0
  0
LINE
  5
15D
330
146
100
AcDbEntity
  8
DV2_Default
  6
Continuous
 62
     7
 48
25.4
100
AcDbLine
 10
418.7513267327
 20
384.3828766702
 30
0.0
 11
418.7513267327
 21
317.7828766702
 31
0.0
  0
LINE
  5
15E
330
146
100
AcDbEntity
  8
DV2_Default
  6
Continuous
 62
     7
 48
25.4
100
AcDbLine
 10
448.7513267327
 20
384.3828766702
 30
0.0
 11
448.7513267327
 21
317.7828766702
 31
0.0
  0
LINE
  5
15F
330
146
100
AcDbEntity
  8
DV2_Default
  6
Continuous
 62
     7
 48
25.4
100
AcDbLine
 10
448.7513267327
 20
317.7828766702
 30
0.0
 11
418.7513267327
 21
317.7828766702
 31
0.0
  0
LINE
  5
160
330
146
100
AcDbEntity
  8
DV2_Default
  6
Continuous
 62
     7
 48
25.4
100
AcDbLine
 10
520.8328435578
 20
261.0124882115
 30
0.0
 11
468.8713193307
 21
291.0124882115
 31
0.0
  0
LINE
  5
161
330
146
100
AcDbEntity
  8
DV2_Default
  6
Continuous
 62
     7
 48
25.4
100
AcDbLine
 10
452.6713193307
 20
262.9532651289
 30
0.0
 11
504.6328435578
 21
232.9532651289
 31
0.0
  0
LINE
  5
162
330
146
100
AcDbEntity
  8
DV2_Default
  6
Continuous
 62
     7
 48
25.4
100
AcDbLine
 10
504.6328435578
 20
232.9532651289
 30
0.0
 11
520.8328435578
 21
261.0124882115
 31
0.0
  0
LINE
  5
163
330
146
100
AcDbEntity
  8
DV2_Default
  6
Continuous
 62
     7
 48
25.4
100
AcDbLine
 10
520.8328435578
 20
261.0124882115
 30
0.0
 11
522.7040487752
 21
269.8158166181
 31
0.0
  0
LINE
  5
164
330
146
100
AcDbEntity
  8
DV2_Default
  6
Continuous
 62
     7
 48
25.4
100
AcDbLine
 10
522.7040487752
 20
269.8158166181
 30
0.0
 11
522.1462443373
 21
270.1378651605
 31
0.0
  0
LINE
  5
165
330
146
100
AcDbEntity
  8
DV2_Default
  6
Continuous
 62
     7
 48
25.4
100
AcDbLine
 10
504.6325103709
 20
232.9526880323
 30
0.0
 11
497.9442069416
 21
226.930512575
 31
0.0
  0
LINE
  5
166
330
146
100
AcDbEntity
  8
DV2_Default
  6
Continuous
 62
     7
 48
25.4
100
AcDbLine
 10
497.9442069416
 20
226.930512575
 30
0.0
 11
497.3864025037
 21
227.2525611174
 31
0.0
  0
LINE
  5
167
330
146
100
AcDbEntity
  8
DV2_Default
  6
Continuous
 62
     7
 48
25.4
100
AcDbLine
 10
509.5828435578
 20
241.5269166264
 30
0.0
 11
460.7390107844
 21
269.7269166264
 31
0.0
  0
LINE
  5
168
330
146
100
AcDbEntity
  8
DV2_Default
  6
Continuous
 62
     7
 48
25.4
100
AcDbLine
 10
460.7390107844
 20
269.7269166264
 30
0.0
 11
455.7890107844
 21
261.1532651289
 31
0.0
  0
LINE
  5
169
330
146
100
AcDbEntity
  8
DV2_Default
  6
Continuous
 62
     7
 48
25.4
100
AcDbLine
 10
515.8828435578
 20
252.4388367141
 30
0.0
 11
467.0390107844
 21
280.6388367141
 31
0.0
  0
LINE
  5
16A
330
146
100
AcDbEntity
  8
DV2_Default
  6
Continuous
 62
     7
 48
25.4
100
AcDbLine
 10
467.0390107844
 20
280.6388367141
 30
0.0
 11
471.9890107844
 21
289.2124882115
 31
0.0
  0
ARC
  5
16B
330
146
100
AcDbEntity
  8
DV2_Default
  6
Continuous
 62
     7
 48
25.4
100
AcDbCircle
 10
468.7946677175
 20
272.3505943193
 30
0.0
 40
6.313266812213385
100
AcDbArc
 50
56.2849049344
 51
243.7150950656
  0
ARC
  5
16C
330
146
100
AcDbEntity
  8
DV2_Default
  6
Continuous
 62
     7
 48
25.4
100
AcDbCircle
 10
467.9930073448
 20
272.8134331513
 30
0.0
 40
6.281823304212476
100
AcDbArc
 50
57.7290057246
 51
242.2709942754
  0
LINE
  5
16D
330
146
100
AcDbEntity
  8
DV2_Default
  6
Continuous
 62
     7
 48
25.4
100
AcDbLine
 10
448.1624917035
 20
258.7437465959
 30
0.0
 11
470.2624555044
 21
297.0220067445
 31
0.0
  0
LINE
  5
16E
330
146
100
AcDbEntity
  8
DV2_Default
  6
Continuous
 62
     7
 48
25.4
100
AcDbLine
 10
470.5094967783
 20
293.8498947825
 30
0.0
 11
451.0331418832
 21
260.1158585579
 31
0.0
  0
CIRCLE
  5
16F
330
146
100
AcDbEntity
  8
DV2_Default
  6
Continuous
 62
     7
 48
25.4
100
AcDbCircle
 10
447.0598020318
 20
242.9149706824
 30
0.0
 40
7.5
  0
CIRCLE
  5
170
330
146
100
AcDbEntity
  8
DV2_Default
  6
Continuous
 62
     7
 48
25.4
100
AcDbCircle
 10
447.0598020318
 20
242.9149706824
 30
0.0
 40
5.100000000000001
  0
LINE
  5
171
330
146
100
AcDbEntity
  8
DV2_Default
  6
Continuous
 62
     7
 48
25.4
100
AcDbLine
 10
362.8698099075
 20
232.9532651289
 30
0.0
 11
414.8313341346
 21
262.9532651289
 31
0.0
  0
LINE
  5
172
330
146
100
AcDbEntity
  8
DV2_Default
  6
Continuous
 62
     7
 48
25.4
100
AcDbLine
 10
398.6313341346
 20
291.0124882115
 30
0.0
 11
346.6698099075
 21
261.0124882115
 31
0.0
  0
LINE
  5
173
330
146
100
AcDbEntity
  8
DV2_Default
  6
Continuous
 62
     7
 48
25.4
100
AcDbLine
 10
346.6698099075
 20
261.0124882115
 30
0.0
 11
362.8698099075
 21
232.9532651289
 31
0.0
  0
LINE
  5
174
330
146
100
AcDbEntity
  8
DV2_Default
  6
Continuous
 62
     7
 48
25.4
100
AcDbLine
 10
362.8698099075
 20
232.9532651289
 30
0.0
 11
369.5581133368
 21
226.9310896717
 31
0.0
  0
LINE
  5
175
330
146
100
AcDbEntity
  8
DV2_Default
  6
Continuous
 62
     7
 48
25.4
100
AcDbLine
 10
369.5581133368
 20
226.9310896717
 30
0.0
 11
370.1159177747
 21
227.253138214
 31
0.0
  0
LINE
  5
176
330
146
100
AcDbEntity
  8
DV2_Default
  6
Continuous
 62
     7
 48
25.4
100
AcDbLine
 10
346.6694767206
 20
261.0130653082
 30
0.0
 11
344.7982715033
 21
269.8163937148
 31
0.0
  0
LINE
  5
177
330
146
100
AcDbEntity
  8
DV2_Default
  6
Continuous
 62
     7
 48
25.4
100
AcDbLine
 10
344.7982715033
 20
269.8163937148
 30
0.0
 11
345.3560759411
 21
270.1384422571
 31
0.0
  0
LINE
  5
178
330
146
100
AcDbEntity
  8
DV2_Default
  6
Continuous
 62
     7
 48
25.4
100
AcDbLine
 10
351.6198099075
 20
252.4388367141
 30
0.0
 11
400.463642681
 21
280.6388367141
 31
0.0
  0
LINE
  5
179
330
146
100
AcDbEntity
  8
DV2_Default
  6
Continuous
 62
     7
 48
25.4
100
AcDbLine
 10
400.463642681
 20
280.6388367141
 30
0.0
 11
395.513642681
 21
289.2124882115
 31
0.0
  0
LINE
  5
17A
330
146
100
AcDbEntity
  8
DV2_Default
  6
Continuous
 62
     7
 48
25.4
100
AcDbLine
 10
357.9198099075
 20
241.5269166264
 30
0.0
 11
406.763642681
 21
269.7269166264
 31
0.0
  0
LINE
  5
17B
330
146
100
AcDbEntity
  8
DV2_Default
  6
Continuous
 62
     7
 48
25.4
100
AcDbLine
 10
406.763642681
 20
269.7269166264
 30
0.0
 11
411.713642681
 21
261.1532651289
 31
0.0
  0
ARC
  5
17C
330
146
100
AcDbEntity
  8
DV2_Default
  6
Continuous
 62
     7
 48
25.4
100
AcDbCircle
 10
398.7079857478
 20
272.3505943193
 30
0.0
 40
6.313266812213385
100
AcDbArc
 50
296.2849049344
 51
123.7150950656
  0
ARC
  5
17D
330
146
100
AcDbEntity
  8
DV2_Default
  6
Continuous
 62
     7
 48
25.4
100
AcDbCircle
 10
399.5096461205
 20
272.8134331513
 30
0.0
 40
6.281823304212476
100
AcDbArc
 50
297.7290057246
 51
122.2709942754
  0
LINE
  5
17E
330
146
100
AcDbEntity
  8
DV2_Default
  6
Continuous
 62
     7
 48
25.4
100
AcDbLine
 10
397.240197961
 20
297.0220067445
 30
0.0
 11
419.3401617618
 21
258.7437465959
 31
0.0
  0
LINE
  5
17F
330
146
100
AcDbEntity
  8
DV2_Default
  6
Continuous
 62
     7
 48
25.4
100
AcDbLine
 10
416.4695115821
 20
260.1158585579
 30
0.0
 11
396.993156687
 21
293.8498947825
 31
0.0
  0
CIRCLE
  5
180
330
146
100
AcDbEntity
  8
DV2_Default
  6
Continuous
 62
     7
 48
25.4
100
AcDbCircle
 10
384.0834207449
 20
305.8913519694
 30
0.0
 40
7.5
  0
CIRCLE
  5
181
330
146
100
AcDbEntity
  8
DV2_Default
  6
Continuous
 62
     7
 48
25.4
100
AcDbCircle
 10
384.0834207449
 20
305.8913519694
 30
0.0
 40
5.100000000000001
  0
ARC
  5
182
330
146
100
AcDbEntity
  8
DV2_Default
  6
Continuous
 62
     7
 48
25.4
100
AcDbCircle
 10
433.7513267327
 20
292.5828766702
 30
0.0
 40
36.78
100
AcDbArc
 50
116.1330284875
 51
183.8669715125
  0
ARC
  5
183
330
146
100
AcDbEntity
  8
DV2_Default
  6
Continuous
 62
     7
 48
25.4
100
AcDbCircle
 10
433.7513267327
 20
292.5828766702
 30
0.0
 40
91.19999999999999
100
AcDbArc
 50
340.2318362662
 51
79.7681637338
  0
ARC
  5
184
330
146
100
AcDbEntity
  8
DV2_Default
  6
Continuous
 62
     7
 48
25.4
100
AcDbCircle
 10
433.7513267327
 20
292.5828766702
 30
0.0
 40
36.78
100
AcDbArc
 50
236.1330284875
 51
303.8669715125
  0
ARC
  5
185
330
146
100
AcDbEntity
  8
DV2_Default
  6
Continuous
 62
     7
 48
25.4
100
AcDbCircle
 10
433.7513267327
 20
292.5828766702
 30
0.0
 40
36.78
100
AcDbArc
 50
356.1330284875
 51
63.8669715125
  0
ARC
  5
186
330
146
100
AcDbEntity
  8
DV2_Default
  6
Continuous
 62
     7
 48
25.4
100
AcDbCircle
 10
433.7513267327
 20
292.5828766702
 30
0.0
 40
91.19999999999999
100
AcDbArc
 50
220.2318362662
 51
319.7681637338
  0
ARC
  5
187
330
146
100
AcDbEntity
  8
DV2_Default
  6
Continuous
 62
     7
 48
25.4
100
AcDbCircle
 10
433.7513267327
 20
292.5828766702
 30
0.0
 40
91.19999999999999
100
AcDbArc
 50
100.2318362662
 51
199.7681637338
  0
CIRCLE
  5
188
330
146
100
AcDbEntity
  8
DV2_Default
  6
Continuous
 62
     7
 48
25.4
100
AcDbCircle
 10
420.4428514335
 20
242.9149706824
 30
0.0
 40
7.5
  0
CIRCLE
  5
189
330
146
100
AcDbEntity
  8
DV2_Default
  6
Continuous
 62
     7
 48
25.4
100
AcDbCircle
 10
420.4428514335
 20
242.9149706824
 30
0.0
 40
5.100000000000001
  0
CIRCLE
  5
18A
330
146
100
AcDbEntity
  8
DV2_Default
  6
Continuous
 62
     7
 48
25.4
100
AcDbCircle
 10
397.3918960441
 20
328.9423073588
 30
0.0
 40
7.5
  0
CIRCLE
  5
18B
330
146
100
AcDbEntity
  8
DV2_Default
  6
Continuous
 62
     7
 48
25.4
100
AcDbCircle
 10
397.3918960441
 20
328.9423073588
 30
0.0
 40
5.100000000000001
  0
CIRCLE
  5
18C
330
146
100
AcDbEntity
  8
DV2_Default
  6
Continuous
 62
     7
 48
25.4
100
AcDbCircle
 10
470.1107574213
 20
328.9423073588
 30
0.0
 40
7.5
  0
CIRCLE
  5
18D
330
146
100
AcDbEntity
  8
DV2_Default
  6
Continuous
 62
     7
 48
25.4
100
AcDbCircle
 10
470.1107574213
 20
328.9423073588
 30
0.0
 40
5.100000000000001
  0
CIRCLE
  5
18E
330
146
100
AcDbEntity
  8
DV2_Default
  6
Continuous
 62
     7
 48
25.4
100
AcDbCircle
 10
483.4192327204
 20
305.8913519694
 30
0.0
 40
7.5
  0
CIRCLE
  5
18F
330
146
100
AcDbEntity
  8
DV2_Default
  6
Continuous
 62
     7
 48
25.4
100
AcDbCircle
 10
483.4192327204
 20
305.8913519694
 30
0.0
 40
5.100000000000001
  0
LINE
  5
190
330
146
100
AcDbEntity
  8
DV2_Default
  6
Continuous
 62
     7
 48
25.4
100
AcDbLine
 10
476.1747890233
 20
303.9502091311
 30
0.0
 11
490.6636764176
 21
307.8324948077
 31
0.0
  0
LINE
  5
191
330
146
100
AcDbEntity
  8
DV2_Default
  6
Continuous
 62
     7
 48
25.4
100
AcDbLine
 10
391.327864442
 20
303.9502091311
 30
0.0
 11
376.8389770477
 21
307.8324948077
 31
0.0
  0
LINE
  5
192
330
146
100
AcDbEntity
  8
DV2_Default
  6
Continuous
 62
     7
 48
25.4
100
AcDbLine
 10
402.695196903
 20
323.6390064999
 30
0.0
 11
392.0885951852
 21
334.2456082177
 31
0.0
  0
LINE
  5
193
330
146
100
AcDbEntity
  8
DV2_Default
  6
Continuous
 62
     7
 48
25.4
100
AcDbLine
 10
464.8074565624
 20
323.6390064999
 30
0.0
 11
475.4140582802
 21
334.2456082177
 31
0.0
  0
LINE
  5
194
330
146
100
AcDbEntity
  8
DV2_Default
  6
Continuous
 62
     7
 48
25.4
100
AcDbLine
 10
422.3839942718
 20
250.1594143796
 30
0.0
 11
418.5017085952
 21
235.6705269853
 31
0.0
  0
LINE
  5
195
330
146
100
AcDbEntity
  8
DV2_Default
  6
Continuous
 62
     7
 48
25.4
100
AcDbLine
 10
445.1186591936
 20
250.1594143796
 30
0.0
 11
449.0009448701
 21
235.6705269853
 31
0.0
  0
ARC
  5
196
330
146
100
AcDbEntity
  8
DV2_Default
  6
CENTER2
 62
     7
 48
25.4
100
AcDbCircle
 10
433.7513267327
 20
292.5828766702
 30
0.0
 40
51.42
100
AcDbArc
 50
126.6355468977
 51
173.3644531023
  0
ARC
  5
197
330
146
100
AcDbEntity
  8
DV2_Default
  6
CENTER2
 62
     7
 48
25.4
100
AcDbCircle
 10
433.7513267327
 20
292.5828766702
 30
0.0
 40
51.42
100
AcDbArc
 50
6.6355468977
 51
53.3644531023
  0
ARC
  5
198
330
146
100
AcDbEntity
  8
DV2_Default
  6
CENTER2
 62
     7
 48
25.4
100
AcDbCircle
 10
433.7513267327
 20
292.5828766702
 30
0.0
 40
51.42
100
AcDbArc
 50
246.2912000373
 51
293.3644531023
  0
LINE
  5
199
330
146
100
AcDbEntity
  8
DV2_Default
  6
Continuous
 62
     7
 48
25.4
100
AcDbLine
 10
418.7513267327
 20
384.3828766702
 30
0.0
 11
448.7513267327
 21
384.3828766702
 31
0.0
  0
LINE
  5
19A
330
146
100
AcDbEntity
  8
DV2_Default
  6
Continuous
 62
     7
 48
25.4
100
AcDbLine
 10
433.7515865985
 20
371.7828766702
 30
0.0
 11
433.7515865985
 21
353.7828766702
 31
0.0
  0
CIRCLE
  5
19B
330
146
100
AcDbEntity
  8
DV2_Default
  6
Continuous
 62
     7
 48
25.4
100
AcDbCircle
 10
433.7515865985
 20
371.7828766702
 30
0.0
 40
7.499999999999999
  0
CIRCLE
  5
19C
330
146
100
AcDbEntity
  8
DV2_Default
  6
Continuous
 62
     7
 48
25.4
100
AcDbCircle
 10
433.7515865985
 20
371.7828766702
 30
0.0
 40
7.2
  0
LINE
  5
19D
330
146
100
AcDbEntity
  8
DV2_Default
  6
CENTER2
 62
     7
 48
25.4
100
AcDbLine
 10
424.1515865985
 20
371.7828766702
 30
0.0
 11
443.0515865985
 21
371.7828766702
 31
0.0
  0
LINE
  5
19E
330
146
100
AcDbEntity
  8
DV2_Default
  6
Continuous
 62
     7
 48
25.4
100
AcDbLine
 10
433.7515865985
 20
371.7828766702
 30
0.0
 11
433.7515865985
 21
362.7828766702
 31
0.0
  0
LINE
  5
19F
330
146
100
AcDbEntity
  8
DV2_Default
  6
Continuous
 62
     7
 48
25.4
100
AcDbLine
 10
433.7515865985
 20
376.5828766702
 30
0.0
 11
429.5946646603
 21
374.1828766702
 31
0.0
  0
LINE
  5
1A0
330
146
100
AcDbEntity
  8
DV2_Default
  6
Continuous
 62
     7
 48
25.4
100
AcDbLine
 10
429.5946646603
 20
374.1828766702
 30
0.0
 11
429.5946646603
 21
369.3828766702
 31
0.0
  0
LINE
  5
1A1
330
146
100
AcDbEntity
  8
DV2_Default
  6
Continuous
 62
     7
 48
25.4
100
AcDbLine
 10
429.5946646603
 20
369.3828766702
 30
0.0
 11
433.7515865985
 21
366.9828766702
 31
0.0
  0
LINE
  5
1A2
330
146
100
AcDbEntity
  8
DV2_Default
  6
Continuous
 62
     7
 48
25.4
100
AcDbLine
 10
433.7515865985
 20
366.9828766702
 30
0.0
 11
437.9085085367
 21
369.3828766702
 31
0.0
  0
LINE
  5
1A3
330
146
100
AcDbEntity
  8
DV2_Default
  6
Continuous
 62
     7
 48
25.4
100
AcDbLine
 10
437.9085085367
 20
369.3828766702
 30
0.0
 11
437.9085085367
 21
374.1828766702
 31
0.0
  0
LINE
  5
1A4
330
146
100
AcDbEntity
  8
DV2_Default
  6
Continuous
 62
     7
 48
25.4
100
AcDbLine
 10
437.9085085367
 20
374.1828766702
 30
0.0
 11
433.7515865985
 21
376.5828766702
 31
0.0
  0
CIRCLE
  5
1A5
330
146
100
AcDbEntity
  8
DV2_Default
  6
Continuous
 62
     7
 48
25.4
100
AcDbCircle
 10
433.7515865985
 20
353.7828766702
 30
0.0
 40
7.499999999999999
  0
CIRCLE
  5
1A6
330
146
100
AcDbEntity
  8
DV2_Default
  6
Continuous
 62
     7
 48
25.4
100
AcDbCircle
 10
433.7515865985
 20
353.7828766702
 30
0.0
 40
7.2
  0
LINE
  5
1A7
330
146
100
AcDbEntity
  8
DV2_Default
  6
CENTER2
 62
     7
 48
25.4
100
AcDbLine
 10
424.1515865985
 20
353.7828766702
 30
0.0
 11
443.0515865985
 21
353.7828766702
 31
0.0
  0
LINE
  5
1A8
330
146
100
AcDbEntity
  8
DV2_Default
  6
Continuous
 62
     7
 48
25.4
100
AcDbLine
 10
433.7515865985
 20
348.9828766702
 30
0.0
 11
429.5946646603
 21
351.3828766702
 31
0.0
  0
LINE
  5
1A9
330
146
100
AcDbEntity
  8
DV2_Default
  6
Continuous
 62
     7
 48
25.4
100
AcDbLine
 10
429.5946646603
 20
351.3828766702
 30
0.0
 11
429.5946646603
 21
356.1828766702
 31
0.0
  0
LINE
  5
1AA
330
146
100
AcDbEntity
  8
DV2_Default
  6
Continuous
 62
     7
 48
25.4
100
AcDbLine
 10
429.5946646603
 20
356.1828766702
 30
0.0
 11
433.7515865985
 21
358.5828766702
 31
0.0
  0
LINE
  5
1AB
330
146
100
AcDbEntity
  8
DV2_Default
  6
Continuous
 62
     7
 48
25.4
100
AcDbLine
 10
433.7515865985
 20
358.5828766702
 30
0.0
 11
437.9085085367
 21
356.1828766702
 31
0.0
  0
LINE
  5
1AC
330
146
100
AcDbEntity
  8
DV2_Default
  6
Continuous
 62
     7
 48
25.4
100
AcDbLine
 10
437.9085085367
 20
356.1828766702
 30
0.0
 11
437.9085085367
 21
351.3828766702
 31
0.0
  0
LINE
  5
1AD
330
146
100
AcDbEntity
  8
DV2_Default
  6
Continuous
 62
     7
 48
25.4
100
AcDbLine
 10
437.9085085367
 20
351.3828766702
 30
0.0
 11
433.7515865985
 21
348.9828766702
 31
0.0
  0
LINE
  5
1AE
330
146
100
AcDbEntity
  8
DV2_Default
  6
Continuous
 62
     7
 48
25.4
100
AcDbLine
 10
433.1524733688
 20
260.6221071548
 30
0.0
 11
432.5524733688
 21
259.5828766702
 31
0.0
  0
LINE
  5
1AF
330
146
100
AcDbEntity
  8
DV2_Default
  6
Continuous
 62
     7
 48
25.4
100
AcDbLine
 10
432.5524733688
 20
259.5828766702
 30
0.0
 11
433.1524733688
 21
258.5436461857
 31
0.0
  0
LINE
  5
1B0
330
146
100
AcDbEntity
  8
DV2_Default
  6
Continuous
 62
     7
 48
25.4
100
AcDbLine
 10
433.1524733688
 20
258.5436461857
 30
0.0
 11
434.3524733688
 21
258.5436461857
 31
0.0
  0
LINE
  5
1B1
330
146
100
AcDbEntity
  8
DV2_Default
  6
Continuous
 62
     7
 48
25.4
100
AcDbLine
 10
434.3524733688
 20
258.5436461857
 30
0.0
 11
434.9524733688
 21
259.5828766702
 31
0.0
  0
LINE
  5
1B2
330
146
100
AcDbEntity
  8
DV2_Default
  6
Continuous
 62
     7
 48
25.4
100
AcDbLine
 10
434.9524733688
 20
259.5828766702
 30
0.0
 11
434.3524733688
 21
260.6221071548
 31
0.0
  0
LINE
  5
1B3
330
146
100
AcDbEntity
  8
DV2_Default
  6
Continuous
 62
     7
 48
25.4
100
AcDbLine
 10
433.1524733688
 20
260.6221071548
 30
0.0
 11
434.3524733688
 21
260.6221071548
 31
0.0
  0
CIRCLE
  5
1B4
330
146
100
AcDbEntity
  8
DV2_Default
  6
Continuous
 62
     7
 48
25.4
100
AcDbCircle
 10
433.7513267327
 20
259.5828766702
 30
0.0
 40
3.0
  0
CIRCLE
  5
1B5
330
146
100
AcDbEntity
  8
DV2_Default
  6
Continuous
 62
     7
 48
25.4
100
AcDbCircle
 10
433.7513267327
 20
259.5828766702
 30
0.0
 40
2.7
  0
LINE
  5
1B6
330
146
100
AcDbEntity
  8
DV2_Default
  6
Continuous
 62
     7
 48
25.4
100
AcDbLine
 10
461.7295917395
 20
308.0446392017
 30
0.0
 11
462.9295917395
 21
308.0446392017
 31
0.0
  0
LINE
  5
1B7
330
146
100
AcDbEntity
  8
DV2_Default
  6
Continuous
 62
     7
 48
25.4
100
AcDbLine
 10
462.9295917395
 20
308.0446392017
 30
0.0
 11
463.5295917395
 21
309.0838696862
 31
0.0
  0
LINE
  5
1B8
330
146
100
AcDbEntity
  8
DV2_Default
  6
Continuous
 62
     7
 48
25.4
100
AcDbLine
 10
463.5295917395
 20
309.0838696862
 30
0.0
 11
462.9295917395
 21
310.1231001707
 31
0.0
  0
LINE
  5
1B9
330
146
100
AcDbEntity
  8
DV2_Default
  6
Continuous
 62
     7
 48
25.4
100
AcDbLine
 10
462.9295917395
 20
310.1231001707
 30
0.0
 11
461.7295917395
 21
310.1231001707
 31
0.0
  0
LINE
  5
1BA
330
146
100
AcDbEntity
  8
DV2_Default
  6
Continuous
 62
     7
 48
25.4
100
AcDbLine
 10
461.7295917395
 20
310.1231001707
 30
0.0
 11
461.1295917395
 21
309.0838696862
 31
0.0
  0
LINE
  5
1BB
330
146
100
AcDbEntity
  8
DV2_Default
  6
Continuous
 62
     7
 48
25.4
100
AcDbLine
 10
461.7295917395
 20
308.0446392017
 30
0.0
 11
461.1295917395
 21
309.0838696862
 31
0.0
  0
CIRCLE
  5
1BC
330
146
100
AcDbEntity
  8
DV2_Default
  6
Continuous
 62
     7
 48
25.4
100
AcDbCircle
 10
462.3301650576
 20
309.0828766702
 30
0.0
 40
3.0
  0
CIRCLE
  5
1BD
330
146
100
AcDbEntity
  8
DV2_Default
  6
Continuous
 62
     7
 48
25.4
100
AcDbCircle
 10
462.3301650576
 20
309.0828766702
 30
0.0
 40
2.7
  0
LINE
  5
1BE
330
146
100
AcDbEntity
  8
DV2_Default
  6
Continuous
 62
     7
 48
25.4
100
AcDbLine
 10
406.3719150897
 20
309.0818836542
 30
0.0
 11
405.7719150897
 21
310.1211141388
 31
0.0
  0
LINE
  5
1BF
330
146
100
AcDbEntity
  8
DV2_Default
  6
Continuous
 62
     7
 48
25.4
100
AcDbLine
 10
405.7719150897
 20
310.1211141388
 30
0.0
 11
404.5719150897
 21
310.1211141388
 31
0.0
  0
LINE
  5
1C0
330
146
100
AcDbEntity
  8
DV2_Default
  6
Continuous
 62
     7
 48
25.4
100
AcDbLine
 10
404.5719150897
 20
310.1211141388
 30
0.0
 11
403.9719150897
 21
309.0818836542
 31
0.0
  0
LINE
  5
1C1
330
146
100
AcDbEntity
  8
DV2_Default
  6
Continuous
 62
     7
 48
25.4
100
AcDbLine
 10
403.9719150897
 20
309.0818836542
 30
0.0
 11
404.5719150897
 21
308.0426531697
 31
0.0
  0
LINE
  5
1C2
330
146
100
AcDbEntity
  8
DV2_Default
  6
Continuous
 62
     7
 48
25.4
100
AcDbLine
 10
404.5719150897
 20
308.0426531697
 30
0.0
 11
405.7719150897
 21
308.0426531697
 31
0.0
  0
LINE
  5
1C3
330
146
100
AcDbEntity
  8
DV2_Default
  6
Continuous
 62
     7
 48
25.4
100
AcDbLine
 10
406.3719150897
 20
309.0818836542
 30
0.0
 11
405.7719150897
 21
308.0426531697
 31
0.0
  0
CIRCLE
  5
1C4
330
146
100
AcDbEntity
  8
DV2_Default
  6
Continuous
 62
     7
 48
25.4
100
AcDbCircle
 10
405.1724884078
 20
309.0828766702
 30
0.0
 40
3.0
  0
CIRCLE
  5
1C5
330
146
100
AcDbEntity
  8
DV2_Default
  6
Continuous
 62
     7
 48
25.4
100
AcDbCircle
 10
405.1724884078
 20
309.0828766702
 30
0.0
 40
2.7
  0
ARC
  5
1C6
330
146
100
AcDbEntity
  8
DV2_Default
  6
CENTER2
 62
     7
 48
25.4
100
AcDbCircle
 10
433.7513267327
 20
292.5828766702
 30
0.0
 40
33.0
100
AcDbArc
 50
264.7894974699
 51
275.2105025301
  0
ARC
  5
1C7
330
146
100
AcDbEntity
  8
DV2_Default
  6
CENTER2
 62
     7
 48
25.4
100
AcDbCircle
 10
433.7513267327
 20
292.5828766702
 30
0.0
 40
33.0
100
AcDbArc
 50
24.7894974699
 51
35.2105025301
  0
ARC
  5
1C8
330
146
100
AcDbEntity
  8
DV2_Default
  6
CENTER2
 62
     7
 48
25.4
100
AcDbCircle
 10
433.7513267327
 20
292.5828766702
 30
0.0
 40
33.0
100
AcDbArc
 50
144.7894974699
 51
155.2105025301
  0
LINE
  5
1C9
330
146
100
AcDbEntity
  8
DV2_Default
  6
CENTER2
 62
     7
 48
25.4
100
AcDbLine
 10
433.7513267327
 20
292.5828766702
 30
0.0
 11
345.3198099075
 21
241.5269166264
 31
0.0
  0
LINE
  5
1CA
330
146
100
AcDbEntity
  8
DV2_Default
  6
CENTER2
 62
     7
 48
25.4
100
AcDbLine
 10
433.7513267327
 20
292.5828766702
 30
0.0
 11
522.1828435578
 21
241.5269166264
 31
0.0
  0
LINE
  5
1CB
330
146
100
AcDbEntity
  8
DV2_Default
  6
Continuous
 62
     7
 48
25.4
100
AcDbLine
 10
407.7705646191
 20
307.5828766702
 30
0.0
 11
402.5744121964
 21
310.5828766702
 31
0.0
  0
LINE
  5
1CC
330
146
100
AcDbEntity
  8
DV2_Default
  6
Continuous
 62
     7
 48
25.4
100
AcDbLine
 10
459.7320888462
 20
307.5828766702
 30
0.0
 11
464.9282412689
 21
310.5828766702
 31
0.0
  0
ENDBLK
  5
1CE
330
146
100
AcDbEntity
  8
0
100
AcDbBlockEnd
  0
BLOCK
  5
266
330
1CF
100
AcDbEntity
  8
0
100
AcDbBlockBegin
  2
SE2
 70
     0
 71
     0
 10
0.0
 20
0.0
 30
0.0
  3
SE2
  1

  0
LINE
  5
1D2
330
1CF
100
AcDbEntity
  8
DV3_Default
  6
Continuous
 62
     7
 48
25.4
100
AcDbLine
 10
415.9628800759
 20
135.2580278653
 30
0.0
 11
295.9628800759
 21
135.2580278653
 31
0.0
  0
LINE
  5
1D3
330
1CF
100
AcDbEntity
  8
DV3_Default
  6
Continuous
 62
     7
 48
25.4
100
AcDbLine
 10
415.9628800759
 20
135.2580278653
 30
0.0
 11
415.9628800759
 21
43.4580278653
 31
0.0
  0
LINE
  5
1D4
330
1CF
100
AcDbEntity
  8
DV3_Default
  6
Continuous
 62
     7
 48
25.4
100
AcDbLine
 10
415.9628800759
 20
43.4580278653
 30
0.0
 11
295.9628800759
 21
43.4580278653
 31
0.0
  0
LINE
  5
1D5
330
1CF
100
AcDbEntity
  8
DV3_Default
  6
Continuous
 62
     7
 48
25.4
100
AcDbLine
 10
295.9628800759
 20
43.4580278653
 30
0.0
 11
295.9628800759
 21
135.2580278653
 31
0.0
  0
TEXT
  5
1D6
330
1CF
100
AcDbEntity
  8
DV3_Default
  6
Continuous
 62
     7
 48
25.4
100
AcDbText
 10
294.5571448185
 20
38.6403433582
 30
0.0
 40
3.0
  1
0
  7
SEACAD_arial_ttf
 11
294.5571448185
 21
41.6403433582
 31
0.0
100
AcDbText
 73
     3
  0
TEXT
  5
1D7
330
1CF
100
AcDbEntity
  8
DV3_Default
  6
Continuous
 62
     7
 48
25.4
100
AcDbText
 10
328.5958450912
 20
38.5102237544
 30
0.0
 40
3.0
  1
1000
  7
SEACAD_arial_ttf
 11
328.5958450912
 21
41.5102237544
 31
0.0
100
AcDbText
 73
     3
  0
TEXT
  5
1D8
330
1CF
100
AcDbEntity
  8
DV3_Default
  6
Continuous
 62
     7
 48
25.4
100
AcDbText
 10
365.7544596212
 20
38.3821386268
 30
0.0
 40
3.0
  1
2000
  7
SEACAD_arial_ttf
 11
365.7544596212
 21
41.3821386268
 31
0.0
100
AcDbText
 73
     3
  0
TEXT
  5
1D9
330
1CF
100
AcDbEntity
  8
DV3_Default
  6
Continuous
 62
     7
 48
25.4
100
AcDbText
 10
402.1485853541
 20
38.6474902275
 30
0.0
 40
3.0
  1
3000
  7
SEACAD_arial_ttf
 11
402.1485853541
 21
41.6474902275
 31
0.0
100
AcDbText
 73
     3
  0
TEXT
  5
1DA
330
1CF
100
AcDbEntity
  8
DV3_Default
  6
Continuous
 62
     7
 48
25.4
100
AcDbText
 10
290.6489570666
 20
53.803789501
 30
0.0
 40
3.0
  1
20
  7
SEACAD_arial_ttf
 11
290.6489570666
 21
56.803789501
 31
0.0
100
AcDbText
 73
     3
  0
TEXT
  5
1DB
330
1CF
100
AcDbEntity
  8
DV3_Default
  6
Continuous
 62
     7
 48
25.4
100
AcDbText
 10
290.740243959
 20
65.9273087943
 30
0.0
 40
3.0
  1
40
  7
SEACAD_arial_ttf
 11
290.740243959
 21
68.9273087943
 31
0.0
100
AcDbText
 73
     3
  0
TEXT
  5
1DC
330
1CF
100
AcDbEntity
  8
DV3_Default
  6
Continuous
 62
     7
 48
25.4
100
AcDbText
 10
290.3508870764
 20
77.8061204379
 30
0.0
 40
3.0
  1
60
  7
SEACAD_arial_ttf
 11
290.3508870764
 21
80.8061204379
 31
0.0
100
AcDbText
 73
     3
  0
TEXT
  5
1DD
330
1CF
100
AcDbEntity
  8
DV3_Default
  6
Continuous
 62
     7
 48
25.4
100
AcDbText
 10
287.8996702851
 20
101.6234808019
 30
0.0
 40
3.0
  1
100
  7
SEACAD_arial_ttf
 11
287.8996702851
 21
104.6234808019
 31
0.0
100
AcDbText
 73
     3
  0
TEXT
  5
1DE
330
1CF
100
AcDbEntity
  8
DV3_Default
  6
Continuous
 62
     7
 48
25.4
100
AcDbText
 10
290.2502802378
 20
90.0213459482
 30
0.0
 40
3.0
  1
80
  7
SEACAD_arial_ttf
 11
290.2502802378
 21
93.0213459482
 31
0.0
100
AcDbText
 73
     3
  0
TEXT
  5
1DF
330
1CF
100
AcDbEntity
  8
DV3_Default
  6
Continuous
 62
     7
 48
25.4
100
AcDbText
 10
287.5815182079
 20
113.43683075
 30
0.0
 40
3.0
  1
120
  7
SEACAD_arial_ttf
 11
287.5815182079
 21
116.43683075
 31
0.0
100
AcDbText
 73
     3
  0
TEXT
  5
1E0
330
1CF
100
AcDbEntity
  8
DV3_Default
  6
Continuous
 62
     7
 48
25.4
100
AcDbText
 10
333.8935722769
 20
130.5485291213
 30
0.0
 40
3.6
  1
Input Force
  7
SEACAD_arial_ttf
 11
333.8935722769
 21
134.1485291213
 31
0.0
100
AcDbText
 73
     3
  0
TEXT
  5
1E1
330
1CF
100
AcDbEntity
  8
DV3_Default
  6
Continuous
 62
     7
 48
25.4
100
AcDbText
 10
340.7171150329
 20
123.0383897665
 30
0.0
 40
3.0
  1
55KN
  7
SEACAD_arial_ttf
 11
340.7171150329
 21
126.0383897665
 31
0.0
100
AcDbText
 73
     3
  0
TEXT
  5
1E2
330
1CF
100
AcDbEntity
  8
DV3_Default
  6
Continuous
 62
     7
 48
25.4
100
AcDbText
 10
340.4832999036
 20
115.5324152061
 30
0.0
 40
3.0
  1
50KN
  7
SEACAD_arial_ttf
 11
340.4832999036
 21
118.5324152061
 31
0.0
100
AcDbText
 73
     3
  0
TEXT
  5
1E3
330
1CF
100
AcDbEntity
  8
DV3_Default
  6
Continuous
 62
     7
 48
25.4
100
AcDbText
 10
340.2614959428
 20
107.4070371361
 30
0.0
 40
3.0
  1
45KN
  7
SEACAD_arial_ttf
 11
340.2614959428
 21
110.4070371361
 31
0.0
100
AcDbText
 73
     3
  0
TEXT
  5
1E4
330
1CF
100
AcDbEntity
  8
DV3_Default
  6
Continuous
 62
     7
 48
25.4
100
AcDbText
 10
340.2918595835
 20
92.781041281
 30
0.0
 40
3.0
  1
35KN
  7
SEACAD_arial_ttf
 11
340.2918595835
 21
95.781041281
 31
0.0
100
AcDbText
 73
     3
  0
TEXT
  5
1E5
330
1CF
100
AcDbEntity
  8
DV3_Default
  6
Continuous
 62
     7
 48
25.4
100
AcDbText
 10
340.3900124535
 20
99.5654272738
 30
0.0
 40
3.0
  1
40KN
  7
SEACAD_arial_ttf
 11
340.3900124535
 21
102.5654272738
 31
0.0
100
AcDbText
 73
     3
  0
TEXT
  5
1E6
330
1CF
100
AcDbEntity
  8
DV3_Default
  6
Continuous
 62
     7
 48
25.4
100
AcDbText
 10
340.2421141311
 20
84.6921301228
 30
0.0
 40
3.0
  1
30KN
  7
SEACAD_arial_ttf
 11
340.2421141311
 21
87.6921301228
 31
0.0
100
AcDbText
 73
     3
  0
TEXT
  5
1E7
330
1CF
100
AcDbEntity
  8
DV3_Default
  6
Continuous
 62
     7
 48
25.4
100
AcDbText
 10
340.4213216331
 20
76.08744359
 30
0.0
 40
3.0
  1
25KN
  7
SEACAD_arial_ttf
 11
340.4213216331
 21
79.08744359
 31
0.0
100
AcDbText
 73
     3
  0
TEXT
  5
1E8
330
1CF
100
AcDbEntity
  8
DV3_Default
  6
Continuous
 62
     7
 48
25.4
100
AcDbText
 10
340.5049617002
 20
67.9251175783
 30
0.0
 40
3.0
  1
20KN
  7
SEACAD_arial_ttf
 11
340.5049617002
 21
70.9251175783
 31
0.0
100
AcDbText
 73
     3
  0
TEXT
  5
1E9
330
1CF
100
AcDbEntity
  8
DV3_Default
  6
Continuous
 62
     7
 48
25.4
100
AcDbText
 10
340.1656230577
 20
59.4017934465
 30
0.0
 40
3.0
  1
15KN
  7
SEACAD_arial_ttf
 11
340.1656230577
 21
62.4017934465
 31
0.0
100
AcDbText
 73
     3
  0
TEXT
  5
1EA
330
1CF
100
AcDbEntity
  8
DV3_Default
  6
Continuous
 62
     7
 48
25.4
100
AcDbText
 10
345.2620472852
 20
27.2182974267
 30
0.0
 40
3.6
  1
Speed in min-
  7
SEACAD_arial_ttf
 11
345.2620472852
 21
30.8182974267
 31
0.0
100
AcDbText
 73
     3
  0
TEXT
  5
1EB
330
1CF
100
AcDbEntity
  8
DV3_Default
  6
Continuous
 62
     7
 48
25.4
100
AcDbText
 10
376.4881342418
 20
27.2182974267
 30
0.0
 40
2.7516666667
  1
¹
  7
SEACAD_arial_ttf
 11
376.4881342418
 21
29.9699640933
 31
0.0
100
AcDbText
 73
     3
  0
TEXT
  5
1EC
330
1CF
100
AcDbEntity
  8
DV3_Default
  6
Continuous
 62
     7
 48
25.4
100
AcDbText
 10
252.848601945
 20
92.0264486407
 30
0.0
 40
3.6
  1
Total Gripping 
  7
SEACAD_arial_ttf
 11
252.848601945
 21
95.6264486407
 31
0.0
100
AcDbText
 73
     3
  0
TEXT
  5
1ED
330
1CF
100
AcDbEntity
  8
DV3_Default
  6
Continuous
 62
     7
 48
25.4
100
AcDbText
 10
252.848601945
 20
86.391666032
 30
0.0
 40
3.6
  1
Force in KN
  7
SEACAD_arial_ttf
 11
252.848601945
 21
89.991666032
 31
0.0
100
AcDbText
 73
     3
  0
TEXT
  5
1EE
330
1CF
100
AcDbEntity
  8
DV3_Default
  6
Continuous
 62
     7
 48
25.4
100
AcDbText
 10
307.9759149526
 20
147.8906282716
 30
0.0
 40
3.6
  1
Gripping Characteristic Graph For B-212A6
  7
SEACAD_arial_ttf
 11
307.9759149526
 21
151.4906282716
 31
0.0
100
AcDbText
 73
     3
  0
LWPOLYLINE
  5
1EF
330
1CF
100
AcDbEntity
  8
DV3_Default
  6
Continuous
 62
     7
 48
25.4
100
AcDbPolyline
 90
        2
 70
     0
 43
0.0
 10
420.1899720356
 20
48.4786989909
 10
389.8706245448
 20
60.6261178524
  0
HATCH
  5
1F0
330
1CF
100
AcDbEntity
  8
DV3_Default
  6
Continuous
 62
     7
 48
25.4
100
AcDbHatch
 10
0.0
 20
0.0
 30
0.0
210
0.0
220
0.0
230
1.0
  2
SOLID
 70
     1
 71
     0
 91
        1
 92
        1
 93
        3
 72
     1
 10
393.435538198729
 20
59.84420297744446
 11
389.8706245448071
 21
60.62611785237994
 72
     1
 10
389.870624544807
 20
60.62611785237993
 11
392.9892461498893
 21
58.73028043427709
 72
     1
 10
392.9892461498893
 20
58.7302804342771
 11
393.4355381987289
 21
59.84420297744446
 97
        0
 75
     0
 76
     1
 98
        0
  0
LWPOLYLINE
  5
1F1
330
1CF
100
AcDbEntity
  8
DV3_Default
  6
Continuous
 62
     7
 48
25.4
370
    20
100
AcDbPolyline
 90
        4
 70
     1
 43
0.0
 10
393.4355381987
 20
59.8442029774
 10
389.8706245448
 20
60.6261178524
 10
392.9892461499
 20
58.7302804343
 10
393.4355381987
 20
59.8442029774
  0
LINE
  5
1F2
330
1CF
100
AcDbEntity
  8
DV3_Default
  6
Continuous
 62
     7
 48
25.4
100
AcDbLine
 10
420.1899720356
 20
48.4786989909
 30
0.0
 11
465.5812763834
 21
48.4786989909
 31
0.0
  0
TEXT
  5
1F3
330
1CF
100
AcDbEntity
  8
DV3_Default
  6
Continuous
 62
     7
 48
25.4
100
AcDbText
 10
420.1899720356
 20
49.3786989909
 30
0.0
 40
3.6
  1
Gripping Force Limit
  7
SEACAD_arial_ttf
 11
420.1899720356
 21
52.9786989909
 31
0.0
100
AcDbText
 73
     3
  0
TEXT
  5
1F4
330
1CF
100
AcDbEntity
  8
DV3_Default
  6
Continuous
 62
     7
 48
25.4
100
AcDbText
 10
46.0716824175
 20
130.1723332549
 30
0.0
 40
3.0
  1
SPINDLE NOSE SIZE
  7
SEACAD_arial_ttf
 11
46.0716824175
 21
133.1723332549
 31
0.0
100
AcDbText
 73
     3
  0
TEXT
  5
1F5
330
1CF
100
AcDbEntity
  8
DV3_Default
  6
Continuous
 62
     7
 48
25.4
100
AcDbText
 10
135.4027620902
 20
130.0732749063
 30
0.0
 40
3.0
  1
A2-6
  7
SEACAD_arial_ttf
 11
135.4027620902
 21
133.0732749063
 31
0.0
100
AcDbText
 73
     3
  0
TEXT
  5
1F6
330
1CF
100
AcDbEntity
  8
DV3_Default
  6
Continuous
 62
     7
 48
25.4
100
AcDbText
 10
45.6362177499
 20
65.6700450217
 30
0.0
 40
3.0
  1
TOTAL GRIPPING FORCE AT MAX. SPEED
  7
SEACAD_arial_ttf
 11
45.6362177499
 21
68.6700450217
 31
0.0
100
AcDbText
 73
     3
  0
TEXT
  5
1F7
330
1CF
100
AcDbEntity
  8
DV3_Default
  6
Continuous
 62
     7
 48
25.4
100
AcDbText
 10
134.9792779959
 20
22.1024663291
 30
0.0
 40
3.0
  1
SB12N1/KSJ-212
  7
SEACAD_arial_ttf
 11
134.9792779959
 21
25.1024663291
 31
0.0
100
AcDbText
 73
     3
  0
LINE
  5
1F8
330
1CF
100
AcDbEntity
  8
DV3_Default
  6
Continuous
 62
     7
 48
25.4
100
AcDbLine
 10
43.7205626447
 20
27.2789201033
 30
0.0
 11
187.7205626447
 21
27.2789201033
 31
0.0
  0
LINE
  5
1F9
330
1CF
100
AcDbEntity
  8
DV3_Default
  6
Continuous
 62
     7
 48
25.4
100
AcDbLine
 10
187.7205626447
 20
135.2789201033
 30
0.0
 11
43.7205626447
 21
135.2789201033
 31
0.0
  0
LINE
  5
1FA
330
1CF
100
AcDbEntity
  8
DV3_Default
  6
Continuous
 62
     7
 48
25.4
100
AcDbLine
 10
43.7205626447
 20
128.0789201033
 30
0.0
 11
187.7205626447
 21
128.0789201033
 31
0.0
  0
LINE
  5
1FB
330
1CF
100
AcDbEntity
  8
DV3_Default
  6
Continuous
 62
     7
 48
25.4
100
AcDbLine
 10
187.7205626447
 20
120.8789201033
 30
0.0
 11
43.7205626447
 21
120.8789201033
 31
0.0
  0
LINE
  5
1FC
330
1CF
100
AcDbEntity
  8
DV3_Default
  6
Continuous
 62
     7
 48
25.4
100
AcDbLine
 10
43.7205626447
 20
113.6789201033
 30
0.0
 11
187.7205626447
 21
113.6789201033
 31
0.0
  0
LINE
  5
1FD
330
1CF
100
AcDbEntity
  8
DV3_Default
  6
Continuous
 62
     7
 48
25.4
100
AcDbLine
 10
187.7205626447
 20
106.4789201033
 30
0.0
 11
43.7205626447
 21
106.4789201033
 31
0.0
  0
LINE
  5
1FE
330
1CF
100
AcDbEntity
  8
DV3_Default
  6
Continuous
 62
     7
 48
25.4
100
AcDbLine
 10
43.7205626447
 20
99.2789201033
 30
0.0
 11
187.7205626447
 21
99.2789201033
 31
0.0
  0
LINE
  5
1FF
330
1CF
100
AcDbEntity
  8
DV3_Default
  6
Continuous
 62
     7
 48
25.4
100
AcDbLine
 10
187.7205626447
 20
92.0789201033
 30
0.0
 11
43.7205626447
 21
92.0789201033
 31
0.0
  0
LINE
  5
200
330
1CF
100
AcDbEntity
  8
DV3_Default
  6
Continuous
 62
     7
 48
25.4
100
AcDbLine
 10
43.7205626447
 20
84.8789201033
 30
0.0
 11
187.7205626447
 21
84.8789201033
 31
0.0
  0
LINE
  5
201
330
1CF
100
AcDbEntity
  8
DV3_Default
  6
Continuous
 62
     7
 48
25.4
100
AcDbLine
 10
187.7205626447
 20
77.6789201033
 30
0.0
 11
43.7205626447
 21
77.6789201033
 31
0.0
  0
LINE
  5
202
330
1CF
100
AcDbEntity
  8
DV3_Default
  6
Continuous
 62
     7
 48
25.4
100
AcDbLine
 10
43.7205626447
 20
70.4789201033
 30
0.0
 11
187.7205626447
 21
70.4789201033
 31
0.0
  0
LINE
  5
203
330
1CF
100
AcDbEntity
  8
DV3_Default
  6
Continuous
 62
     7
 48
25.4
100
AcDbLine
 10
187.7205626447
 20
63.2789201033
 30
0.0
 11
43.7205626447
 21
63.2789201033
 31
0.0
  0
LINE
  5
204
330
1CF
100
AcDbEntity
  8
DV3_Default
  6
Continuous
 62
     7
 48
25.4
100
AcDbLine
 10
43.7205626447
 20
56.0789201033
 30
0.0
 11
187.7205626447
 21
56.0789201033
 31
0.0
  0
LINE
  5
205
330
1CF
100
AcDbEntity
  8
DV3_Default
  6
Continuous
 62
     7
 48
25.4
100
AcDbLine
 10
187.7205626447
 20
48.8789201033
 30
0.0
 11
43.7205626447
 21
48.8789201033
 31
0.0
  0
LINE
  5
206
330
1CF
100
AcDbEntity
  8
DV3_Default
  6
Continuous
 62
     7
 48
25.4
100
AcDbLine
 10
43.7205626447
 20
41.6789201033
 30
0.0
 11
187.7205626447
 21
41.6789201033
 31
0.0
  0
LINE
  5
207
330
1CF
100
AcDbEntity
  8
DV3_Default
  6
Continuous
 62
     7
 48
25.4
100
AcDbLine
 10
187.7205626447
 20
34.4789201033
 30
0.0
 11
43.7205626447
 21
34.4789201033
 31
0.0
  0
TEXT
  5
208
330
1CF
100
AcDbEntity
  8
DV3_Default
  6
Continuous
 62
     7
 48
25.4
100
AcDbText
 10
96.1805464397
 20
149.9838237146
 30
0.0
 40
3.6
  1
Specifications
  7
SEACAD_arial_ttf
 11
96.1805464397
 21
153.5838237146
 31
0.0
100
AcDbText
 73
     3
  0
TEXT
  5
209
330
1CF
100
AcDbEntity
  8
DV3_Default
  6
Continuous
 62
     7
 48
25.4
100
AcDbText
 10
45.8100043573
 20
122.8148371024
 30
0.0
 40
3.0
  1
THROUGH HOLE
  7
SEACAD_arial_ttf
 11
45.8100043573
 21
125.8148371024
 31
0.0
100
AcDbText
 73
     3
  0
TEXT
  5
20A
330
1CF
100
AcDbEntity
  8
DV3_Default
  6
Continuous
 62
     7
 48
25.4
100
AcDbText
 10
135.2534088287
 20
122.8800619016
 30
0.0
 40
3.0
  1
91mm
  7
SEACAD_arial_ttf
 11
135.2534088287
 21
125.8800619016
 31
0.0
100
AcDbText
 73
     3
  0
TEXT
  5
20B
330
1CF
100
AcDbEntity
  8
DV3_Default
  6
Continuous
 62
     7
 48
25.4
100
AcDbText
 10
45.8670200244
 20
115.3776269345
 30
0.0
 40
3.0
  1
MAX. GRIPPING RANGE
  7
SEACAD_arial_ttf
 11
45.8670200244
 21
118.3776269345
 31
0.0
100
AcDbText
 73
     3
  0
TEXT
  5
20C
330
1CF
100
AcDbEntity
  8
DV3_Default
  6
Continuous
 62
     7
 48
25.4
100
AcDbText
 10
46.0572536664
 20
108.159158242
 30
0.0
 40
3.0
  1
MIN. GRIPPING RANGE
  7
SEACAD_arial_ttf
 11
46.0572536664
 21
111.159158242
 31
0.0
100
AcDbText
 73
     3
  0
TEXT
  5
20D
330
1CF
100
AcDbEntity
  8
DV3_Default
  6
Continuous
 62
     7
 48
25.4
100
AcDbText
 10
46.0002379993
 20
101.0739075245
 30
0.0
 40
3.0
  1
JAW STROKE
  7
SEACAD_arial_ttf
 11
46.0002379993
 21
104.0739075245
 31
0.0
100
AcDbText
 73
     3
  0
TEXT
  5
20E
330
1CF
100
AcDbEntity
  8
DV3_Default
  6
Continuous
 62
     7
 48
25.4
100
AcDbText
 10
45.5150605739
 20
93.9124544991
 30
0.0
 40
3.0
  1
PLUNGER STROKE
  7
SEACAD_arial_ttf
 11
45.5150605739
 21
96.9124544991
 31
0.0
100
AcDbText
 73
     3
  0
TEXT
  5
20F
330
1CF
100
AcDbEntity
  8
DV3_Default
  6
Continuous
 62
     7
 48
25.4
100
AcDbText
 10
45.5150605739
 20
86.7224936402
 30
0.0
 40
3.0
  1
MAX. DRAW BAR PULL FORCE
  7
SEACAD_arial_ttf
 11
45.5150605739
 21
89.7224936402
 31
0.0
100
AcDbText
 73
     3
  0
TEXT
  5
210
330
1CF
100
AcDbEntity
  8
DV3_Default
  6
Continuous
 62
     7
 48
25.4
100
AcDbText
 10
45.6767863824
 20
79.9130000653
 30
0.0
 40
3.0
  1
MAX. GRIPPING FORCE
  7
SEACAD_arial_ttf
 11
45.6767863824
 21
82.9130000653
 31
0.0
100
AcDbText
 73
     3
  0
TEXT
  5
211
330
1CF
100
AcDbEntity
  8
DV3_Default
  6
Continuous
 62
     7
 48
25.4
100
AcDbText
 10
45.8670200244
 20
72.5042977309
 30
0.0
 40
3.0
  1
MAX. SPEED
  7
SEACAD_arial_ttf
 11
45.8670200244
 21
75.5042977309
 31
0.0
100
AcDbText
 73
     3
  0
TEXT
  5
212
330
1CF
100
AcDbEntity
  8
DV3_Default
  6
Continuous
 62
     7
 48
25.4
100
AcDbText
 10
46.0002379993
 20
58.257593988
 30
0.0
 40
3.0
  1
NET WEIGHT WITH SOFT TOP JAWS
  7
SEACAD_arial_ttf
 11
46.0002379993
 21
61.257593988
 31
0.0
100
AcDbText
 73
     3
  0
TEXT
  5
213
330
1CF
100
AcDbEntity
  8
DV3_Default
  6
Continuous
 62
     7
 48
25.4
100
AcDbText
 10
45.8100043573
 20
51.010617462
 30
0.0
 40
3.0
  1
MOMENT OF INERTIA
  7
SEACAD_arial_ttf
 11
45.8100043573
 21
54.010617462
 31
0.0
100
AcDbText
 73
     3
  0
TEXT
  5
214
330
1CF
100
AcDbEntity
  8
DV3_Default
  6
Continuous
 62
     7
 48
25.4
100
AcDbText
 10
45.7814965238
 20
44.0393980787
 30
0.0
 40
3.0
  1
MATCHING CYLINDER
  7
SEACAD_arial_ttf
 11
45.7814965238
 21
47.0393980787
 31
0.0
100
AcDbText
 73
     3
  0
TEXT
  5
215
330
1CF
100
AcDbEntity
  8
DV3_Default
  6
Continuous
 62
     7
 48
25.4
100
AcDbText
 10
45.9717301658
 20
36.5736800772
 30
0.0
 40
3.0
  1
MAX. PRESSURE
  7
SEACAD_arial_ttf
 11
45.9717301658
 21
39.5736800772
 31
0.0
100
AcDbText
 73
     3
  0
TEXT
  5
216
330
1CF
100
AcDbEntity
  8
DV3_Default
  6
Continuous
 62
     7
 48
25.4
100
AcDbText
 10
45.7529886903
 20
29.4122270518
 30
0.0
 40
3.0
  1
MATCHING HARD TOP JAW
  7
SEACAD_arial_ttf
 11
45.7529886903
 21
32.4122270518
 31
0.0
100
AcDbText
 73
     3
  0
TEXT
  5
217
330
1CF
100
AcDbEntity
  8
DV3_Default
  6
Continuous
 62
     7
 48
25.4
100
AcDbText
 10
45.7529886903
 20
22.6027334769
 30
0.0
 40
3.0
  1
MATCHING SOFT TOP JAW
  7
SEACAD_arial_ttf
 11
45.7529886903
 21
25.6027334769
 31
0.0
100
AcDbText
 73
     3
  0
LINE
  5
218
330
1CF
100
AcDbEntity
  8
DV3_Default
  6
Continuous
 62
     7
 48
25.4
100
AcDbLine
 10
43.7205626447
 20
20.0789201033
 30
0.0
 11
187.7205626447
 21
20.0789201033
 31
0.0
  0
LINE
  5
219
330
1CF
100
AcDbEntity
  8
DV3_Default
  6
Continuous
 62
     7
 48
25.4
100
AcDbLine
 10
133.6108595448
 20
135.2789201033
 30
0.0
 11
133.6108595448
 21
20.0789201033
 31
0.0
  0
LINE
  5
21A
330
1CF
100
AcDbEntity
  8
DV3_Default
  6
Continuous
 62
     7
 48
25.4
100
AcDbLine
 10
43.7205626447
 20
135.2789201033
 30
0.0
 11
43.7205626447
 21
20.0789201033
 31
0.0
  0
LINE
  5
21B
330
1CF
100
AcDbEntity
  8
DV3_Default
  6
Continuous
 62
     7
 48
25.4
100
AcDbLine
 10
187.7205626447
 20
135.2789201033
 30
0.0
 11
187.7205626447
 21
20.0789201033
 31
0.0
  0
TEXT
  5
21C
330
1CF
100
AcDbEntity
  8
DV3_Default
  6
Continuous
 62
     7
 48
25.4
100
AcDbText
 10
135.3908702512
 20
115.4799026721
 30
0.0
 40
3.0
  1
304mm
  7
SEACAD_arial_ttf
 11
135.3908702512
 21
118.4799026721
 31
0.0
100
AcDbText
 73
     3
  0
TEXT
  5
21D
330
1CF
100
AcDbEntity
  8
DV3_Default
  6
Continuous
 62
     7
 48
25.4
100
AcDbText
 10
135.2916311083
 20
108.6222393392
 30
0.0
 40
3.0
  1
34mm
  7
SEACAD_arial_ttf
 11
135.2916311083
 21
111.6222393392
 31
0.0
100
AcDbText
 73
     3
  0
TEXT
  5
21E
330
1CF
100
AcDbEntity
  8
DV3_Default
  6
Continuous
 62
     7
 48
25.4
100
AcDbText
 10
134.881575718
 20
101.3286561449
 30
0.0
 40
3.0
  1
10.6mm
  7
SEACAD_arial_ttf
 11
134.881575718
 21
104.3286561449
 31
0.0
100
AcDbText
 73
     3
  0
TEXT
  5
21F
330
1CF
100
AcDbEntity
  8
DV3_Default
  6
Continuous
 62
     7
 48
25.4
100
AcDbText
 10
135.2270588317
 20
94.0575767019
 30
0.0
 40
3.0
  1
23mm
  7
SEACAD_arial_ttf
 11
135.2270588317
 21
97.0575767019
 31
0.0
100
AcDbText
 73
     3
  0
TEXT
  5
220
330
1CF
100
AcDbEntity
  8
DV3_Default
  6
Continuous
 62
     7
 48
25.4
100
AcDbText
 10
135.4891345803
 20
86.6874389103
 30
0.0
 40
3.0
  1
55kN
  7
SEACAD_arial_ttf
 11
135.4891345803
 21
89.6874389103
 31
0.0
100
AcDbText
 73
     3
  0
TEXT
  5
221
330
1CF
100
AcDbEntity
  8
DV3_Default
  6
Continuous
 62
     7
 48
25.4
100
AcDbText
 10
135.0025245926
 20
79.6231579195
 30
0.0
 40
3.0
  1
144kN
  7
SEACAD_arial_ttf
 11
135.0025245926
 21
82.6231579195
 31
0.0
100
AcDbText
 73
     3
  0
TEXT
  5
222
330
1CF
100
AcDbEntity
  8
DV3_Default
  6
Continuous
 62
     7
 48
25.4
100
AcDbText
 10
135.1630090358
 20
72.4945724771
 30
0.0
 40
3.0
  1
3300min-
  7
SEACAD_arial_ttf
 11
135.1630090358
 21
75.4945724771
 31
0.0
100
AcDbText
 73
     3
  0
TEXT
  5
223
330
1CF
100
AcDbEntity
  8
DV3_Default
  6
Continuous
 62
     7
 48
25.4
100
AcDbText
 10
152.771704688
 20
72.4945724771
 30
0.0
 40
2.7516666667
  1
¹
  7
SEACAD_arial_ttf
 11
152.771704688
 21
75.2462391438
 31
0.0
100
AcDbText
 73
     3
  0
TEXT
  5
224
330
1CF
100
AcDbEntity
  8
DV3_Default
  6
Continuous
 62
     7
 48
25.4
100
AcDbText
 10
135.1081405357
 20
65.365242592
 30
0.0
 40
3.0
  1
48kN
  7
SEACAD_arial_ttf
 11
135.1081405357
 21
68.365242592
 31
0.0
100
AcDbText
 73
     3
  0
TEXT
  5
225
330
1CF
100
AcDbEntity
  8
DV3_Default
  6
Continuous
 62
     7
 48
25.4
100
AcDbText
 10
135.0776123381
 20
58.2730980534
 30
0.0
 40
3.0
  1
67.0kg
  7
SEACAD_arial_ttf
 11
135.0776123381
 21
61.2730980534
 31
0.0
100
AcDbText
 73
     3
  0
TEXT
  5
226
330
1CF
100
AcDbEntity
  8
DV3_Default
  6
Continuous
 62
     7
 48
25.4
100
AcDbText
 10
135.0592301903
 20
50.9694531101
 30
0.0
 40
3.0
  1
0.780kg.m
  7
SEACAD_arial_ttf
 11
135.0592301903
 21
53.9694531101
 31
0.0
100
AcDbText
 73
     3
  0
TEXT
  5
227
330
1CF
100
AcDbEntity
  8
DV3_Default
  6
Continuous
 62
     7
 48
25.4
100
AcDbText
 10
154.8853171468
 20
50.9694531101
 30
0.0
 40
2.7516666667
  1
²
  7
SEACAD_arial_ttf
 11
154.8853171468
 21
53.7211197768
 31
0.0
100
AcDbText
 73
     3
  0
TEXT
  5
228
330
1CF
100
AcDbEntity
  8
DV3_Default
  6
Continuous
 62
     7
 48
25.4
100
AcDbText
 10
134.8556469758
 20
43.4684364078
 30
0.0
 40
3.0
  1
S2091
  7
SEACAD_arial_ttf
 11
134.8556469758
 21
46.4684364078
 31
0.0
100
AcDbText
 73
     3
  0
TEXT
  5
229
330
1CF
100
AcDbEntity
  8
DV3_Default
  6
Continuous
 62
     7
 48
25.4
100
AcDbText
 10
135.1632869792
 20
36.393929079
 30
0.0
 40
3.0
  1
2.70MPa
  7
SEACAD_arial_ttf
 11
135.1632869792
 21
39.393929079
 31
0.0
100
AcDbText
 73
     3
  0
TEXT
  5
22A
330
1CF
100
AcDbEntity
  8
DV3_Default
  6
Continuous
 62
     7
 48
25.4
100
AcDbText
 10
135.113138976
 20
29.4229858193
 30
0.0
 40
3.0
  1
HB12N1
  7
SEACAD_arial_ttf
 11
135.113138976
 21
32.4229858193
 31
0.0
100
AcDbText
 73
     3
  0
ARC
  5
22B
330
1CF
100
AcDbEntity
  8
DV3_Default
  6
Continuous
 62
     7
 48
25.4
100
AcDbCircle
 10
294.7211161212
 20
-34.4825815772
 30
0.0
 40
156.2092857952261
100
AcDbArc
 50
41.8579961163
 51
89.5445303859
  0
LINE
  5
22C
330
1CF
100
AcDbEntity
  8
DV3_Default
  6
Continuous
 62
     7
 48
25.4
100
AcDbLine
 10
314.5628800759
 20
43.4580278653
 30
0.0
 11
314.5628800759
 21
135.2580278653
 31
0.0
  0
LINE
  5
22D
330
1CF
100
AcDbEntity
  8
DV3_Default
  6
Continuous
 62
     7
 48
25.4
100
AcDbLine
 10
333.1628800759
 20
135.2580278653
 30
0.0
 11
333.1628800759
 21
43.4580278653
 31
0.0
  0
LINE
  5
22E
330
1CF
100
AcDbEntity
  8
DV3_Default
  6
Continuous
 62
     7
 48
25.4
100
AcDbLine
 10
351.7628800759
 20
43.4580278653
 30
0.0
 11
351.7628800759
 21
135.2580278653
 31
0.0
  0
LINE
  5
22F
330
1CF
100
AcDbEntity
  8
DV3_Default
  6
Continuous
 62
     7
 48
25.4
100
AcDbLine
 10
370.3628800759
 20
135.2580278653
 30
0.0
 11
370.3628800759
 21
43.4580278653
 31
0.0
  0
LINE
  5
230
330
1CF
100
AcDbEntity
  8
DV3_Default
  6
Continuous
 62
     7
 48
25.4
100
AcDbLine
 10
388.9628800759
 20
43.4580278653
 30
0.0
 11
388.9628800759
 21
135.2580278653
 31
0.0
  0
LINE
  5
231
330
1CF
100
AcDbEntity
  8
DV3_Default
  6
Continuous
 62
     7
 48
25.4
100
AcDbLine
 10
407.5628800759
 20
135.2580278653
 30
0.0
 11
407.5628800759
 21
43.4580278653
 31
0.0
  0
LINE
  5
232
330
1CF
100
AcDbEntity
  8
DV3_Default
  6
Continuous
 62
     7
 48
25.4
100
AcDbLine
 10
295.9628800759
 20
43.4580278653
 30
0.0
 11
295.9628800759
 21
55.3980278653
 31
0.0
  0
LINE
  5
233
330
1CF
100
AcDbEntity
  8
DV3_Default
  6
Continuous
 62
     7
 48
25.4
100
AcDbLine
 10
295.9628800759
 20
55.3980278653
 30
0.0
 11
415.9628800759
 21
55.3980278653
 31
0.0
  0
LINE
  5
234
330
1CF
100
AcDbEntity
  8
DV3_Default
  6
Continuous
 62
     7
 48
25.4
100
AcDbLine
 10
415.9628800759
 20
55.3980278653
 30
0.0
 11
415.9628800759
 21
67.3380278653
 31
0.0
  0
LINE
  5
235
330
1CF
100
AcDbEntity
  8
DV3_Default
  6
Continuous
 62
     7
 48
25.4
100
AcDbLine
 10
415.9628800759
 20
67.3380278653
 30
0.0
 11
295.9628800759
 21
67.3380278653
 31
0.0
  0
LINE
  5
236
330
1CF
100
AcDbEntity
  8
DV3_Default
  6
Continuous
 62
     7
 48
25.4
100
AcDbLine
 10
295.9628800759
 20
67.3380278653
 30
0.0
 11
295.9628800759
 21
79.2780278653
 31
0.0
  0
LINE
  5
237
330
1CF
100
AcDbEntity
  8
DV3_Default
  6
Continuous
 62
     7
 48
25.4
100
AcDbLine
 10
295.9628800759
 20
79.2780278653
 30
0.0
 11
415.9628800759
 21
79.2780278653
 31
0.0
  0
LINE
  5
238
330
1CF
100
AcDbEntity
  8
DV3_Default
  6
Continuous
 62
     7
 48
25.4
100
AcDbLine
 10
415.9628800759
 20
79.2780278653
 30
0.0
 11
415.9628800759
 21
91.2180278653
 31
0.0
  0
LINE
  5
239
330
1CF
100
AcDbEntity
  8
DV3_Default
  6
Continuous
 62
     7
 48
25.4
100
AcDbLine
 10
415.9628800759
 20
91.2180278653
 30
0.0
 11
295.9628800759
 21
91.2180278653
 31
0.0
  0
LINE
  5
23A
330
1CF
100
AcDbEntity
  8
DV3_Default
  6
Continuous
 62
     7
 48
25.4
100
AcDbLine
 10
295.9628800759
 20
91.2180278653
 30
0.0
 11
295.9628800759
 21
103.1580278653
 31
0.0
  0
LINE
  5
23B
330
1CF
100
AcDbEntity
  8
DV3_Default
  6
Continuous
 62
     7
 48
25.4
100
AcDbLine
 10
295.9628800759
 20
103.1580278653
 30
0.0
 11
415.9628800759
 21
103.1580278653
 31
0.0
  0
LINE
  5
23C
330
1CF
100
AcDbEntity
  8
DV3_Default
  6
Continuous
 62
     7
 48
25.4
100
AcDbLine
 10
415.9628800759
 20
103.1580278653
 30
0.0
 11
415.9628800759
 21
115.0980278653
 31
0.0
  0
LINE
  5
23D
330
1CF
100
AcDbEntity
  8
DV3_Default
  6
Continuous
 62
     7
 48
25.4
100
AcDbLine
 10
415.9628800759
 20
115.0980278653
 30
0.0
 11
295.9628800759
 21
115.0980278653
 31
0.0
  0
LINE
  5
23E
330
1CF
100
AcDbEntity
  8
DV3_Default
  6
Continuous
 62
     7
 48
25.4
100
AcDbLine
 10
295.9628800759
 20
115.0980278653
 30
0.0
 11
295.9628800759
 21
127.0380278653
 31
0.0
  0
LINE
  5
23F
330
1CF
100
AcDbEntity
  8
DV3_Default
  6
Continuous
 62
     7
 48
25.4
100
AcDbLine
 10
295.9628800759
 20
127.0380278653
 30
0.0
 11
415.9628800759
 21
127.0380278653
 31
0.0
  0
TEXT
  5
240
330
1CF
100
AcDbEntity
  8
DV3_Default
  6
Continuous
 62
     7
 48
25.4
100
AcDbText
 10
288.2124644309
 20
127.928632345
 30
0.0
 40
3.0
  1
144
  7
SEACAD_arial_ttf
 11
288.2124644309
 21
130.928632345
 31
0.0
100
AcDbText
 73
     3
  0
TEXT
  5
241
330
1CF
100
AcDbEntity
  8
DV3_Default
  6
Continuous
 62
     7
 48
25.4
100
AcDbText
 10
412.7973339551
 20
38.4042492899
 30
0.0
 40
3.0
  1
3300
  7
SEACAD_arial_ttf
 11
412.7973339551
 21
41.4042492899
 31
0.0
100
AcDbText
 73
     3
  0
ARC
  5
242
330
1CF
100
AcDbEntity
  8
DV3_Default
  6
Continuous
 62
     7
 48
25.4
100
AcDbCircle
 10
295.9834732727
 20
-54.2243181149
 30
0.0
 40
121.9390957871713
100
AcDbArc
 50
60.2082482483
 51
90.0066616945
  0
ARC
  5
243
330
1CF
100
AcDbEntity
  8
DV3_Default
  6
Continuous
 62
     7
 48
25.4
100
AcDbCircle
 10
294.826867292
 20
-55.0415978643
 30
0.0
 40
130.8361115347404
100
AcDbArc
 50
56.3404715695
 51
89.5025124148
  0
ARC
  5
244
330
1CF
100
AcDbEntity
  8
DV3_Default
  6
Continuous
 62
     7
 48
25.4
100
AcDbCircle
 10
299.5002944665
 20
-39.4252866939
 30
0.0
 40
122.7214247192638
100
AcDbArc
 50
51.2121522992
 51
91.6517653086
  0
ARC
  5
245
330
1CF
100
AcDbEntity
  8
DV3_Default
  6
Continuous
 62
     7
 48
25.4
100
AcDbCircle
 10
299.6042132333
 20
-32.7597879924
 30
0.0
 40
124.0312740540643
100
AcDbArc
 50
47.3505353309
 51
91.6823406438
  0
ARC
  5
246
330
1CF
100
AcDbEntity
  8
DV3_Default
  6
Continuous
 62
     7
 48
25.4
100
AcDbCircle
 10
299.6480169059
 20
-31.1359598823
 30
0.0
 40
130.3224710356465
100
AcDbArc
 50
45.1472300407
 51
91.6203724021
  0
ARC
  5
247
330
1CF
100
AcDbEntity
  8
DV3_Default
  6
Continuous
 62
     7
 48
25.4
100
AcDbCircle
 10
296.9300552111
 20
-33.8564481022
 30
0.0
 40
140.637104155247
100
AcDbArc
 50
43.9988285795
 51
90.3940317916
  0
ARC
  5
248
330
1CF
100
AcDbEntity
  8
DV3_Default
  6
Continuous
 62
     7
 48
25.4
100
AcDbCircle
 10
293.4591662628
 20
-38.9805118981
 30
0.0
 40
154.0243417503462
100
AcDbArc
 50
43.4602716681
 51
89.0665370149
  0
ARC
  5
249
330
1CF
100
AcDbEntity
  8
DV3_Default
  6
Continuous
 62
     7
 48
25.4
100
AcDbCircle
 10
298.9967535388
 20
-19.6217474457
 30
0.0
 40
148.6979719986466
100
AcDbArc
 50
38.162481035
 51
91.1690825712
  0
ARC
  5
24A
330
1CF
100
AcDbEntity
  8
DV3_Default
  6
Continuous
 62
     7
 48
25.4
100
AcDbCircle
 10
320.2757290458
 20
251.4152518512
 30
0.0
 40
203.0855615624068
100
AcDbArc
 50
280.2945282815
 51
298.0938687695
  0
LINE
  5
24B
330
1CF
100
AcDbEntity
  8
DV3_Default
  6
CENTER2
 62
     7
 48
25.4
100
AcDbLine
 10
206.1182747381
 20
135.8368512426
 30
0.0
 11
234.8002356801
 21
135.8368512426
 31
0.0
  0
LINE
  5
24C
330
1CF
100
AcDbEntity
  8
DV3_Default
  6
Continuous
 62
     7
 48
25.4
100
AcDbLine
 10
226.5430424038
 20
135.8368512426
 30
0.0
 11
226.5430424038
 21
129.5368512426
 31
0.0
  0
LINE
  5
24D
330
1CF
100
AcDbEntity
  8
DV3_Default
  6
Continuous
 62
     7
 48
25.4
100
AcDbLine
 10
226.5430424038
 20
129.5368512426
 30
0.0
 11
216.7930424038
 21
129.5368512426
 31
0.0
  0
LINE
  5
24E
330
1CF
100
AcDbEntity
  8
DV3_Default
  6
Continuous
 62
     7
 48
25.4
100
AcDbLine
 10
216.7930424038
 20
129.5368512426
 30
0.0
 11
216.7930424038
 21
126.9868512426
 31
0.0
  0
LINE
  5
24F
330
1CF
100
AcDbEntity
  8
DV3_Default
  6
Continuous
 62
     7
 48
25.4
100
AcDbLine
 10
223.9930424038
 20
120.2368512426
 30
0.0
 11
211.9930424038
 21
120.2368512426
 31
0.0
  0
LINE
  5
250
330
1CF
100
AcDbEntity
  8
DV3_Default
  6
Continuous
 62
     7
 48
25.4
100
AcDbLine
 10
225.1930424038
 20
121.4368512426
 30
0.0
 11
225.1930424038
 21
129.5368512426
 31
0.0
  0
LINE
  5
251
330
1CF
100
AcDbEntity
  8
DV3_Default
  6
Continuous
 62
     7
 48
25.4
100
AcDbLine
 10
223.9930424038
 20
120.2368512426
 30
0.0
 11
225.1930424038
 21
121.4368512426
 31
0.0
  0
LINE
  5
252
330
1CF
100
AcDbEntity
  8
DV3_Default
  6
Continuous
 62
     7
 48
25.4
100
AcDbLine
 10
226.5430424038
 20
135.8368512426
 30
0.0
 11
226.5430424038
 21
142.1368512426
 31
0.0
  0
LINE
  5
253
330
1CF
100
AcDbEntity
  8
DV3_Default
  6
Continuous
 62
     7
 48
25.4
100
AcDbLine
 10
226.5430424038
 20
142.1368512426
 30
0.0
 11
216.7930424038
 21
142.1368512426
 31
0.0
  0
LINE
  5
254
330
1CF
100
AcDbEntity
  8
DV3_Default
  6
Continuous
 62
     7
 48
25.4
100
AcDbLine
 10
216.7930424038
 20
142.1368512426
 30
0.0
 11
216.7930424038
 21
144.6868512426
 31
0.0
  0
LINE
  5
255
330
1CF
100
AcDbEntity
  8
DV3_Default
  6
Continuous
 62
     7
 48
25.4
100
AcDbLine
 10
223.9930424038
 20
151.4368512426
 30
0.0
 11
211.9930424038
 21
151.4368512426
 31
0.0
  0
LINE
  5
256
330
1CF
100
AcDbEntity
  8
DV3_Default
  6
Continuous
 62
     7
 48
25.4
100
AcDbLine
 10
225.1930424038
 20
150.2368512426
 30
0.0
 11
225.1930424038
 21
142.1368512426
 31
0.0
  0
LINE
  5
257
330
1CF
100
AcDbEntity
  8
DV3_Default
  6
Continuous
 62
     7
 48
25.4
100
AcDbLine
 10
223.9930424038
 20
151.4368512426
 30
0.0
 11
225.1930424038
 21
150.2368512426
 31
0.0
  0
LINE
  5
258
330
1CF
100
AcDbEntity
  8
DV3_Default
  6
Continuous
 62
     7
 48
25.4
100
AcDbLine
 10
216.3687783351
 20
145.1111153113
 30
0.0
 11
211.2687783351
 21
145.1111153113
 31
0.0
  0
LINE
  5
259
330
1CF
100
AcDbEntity
  8
DV3_Default
  6
Continuous
 62
     7
 48
25.4
100
AcDbLine
 10
209.4687783351
 20
143.3111153113
 30
0.0
 11
209.4687783351
 21
128.3625871738
 31
0.0
  0
LINE
  5
25A
330
1CF
100
AcDbEntity
  8
DV3_Default
  6
Continuous
 62
     7
 48
25.4
100
AcDbLine
 10
211.2687783351
 20
126.5625871738
 30
0.0
 11
216.3687783351
 21
126.5625871738
 31
0.0
  0
LINE
  5
25B
330
1CF
100
AcDbEntity
  8
DV3_Default
  6
Continuous
 62
     7
 48
25.4
100
AcDbLine
 10
216.7930424038
 20
144.6868512426
 30
0.0
 11
211.6930424038
 21
144.6868512426
 31
0.0
  0
LINE
  5
25C
330
1CF
100
AcDbEntity
  8
DV3_Default
  6
Continuous
 62
     7
 48
25.4
100
AcDbLine
 10
209.8930424038
 20
142.8868512426
 30
0.0
 11
209.8930424038
 21
128.7868512426
 31
0.0
  0
LINE
  5
25D
330
1CF
100
AcDbEntity
  8
DV3_Default
  6
Continuous
 62
     7
 48
25.4
100
AcDbLine
 10
211.6930424038
 20
126.9868512426
 30
0.0
 11
216.7930424038
 21
126.9868512426
 31
0.0
  0
LINE
  5
25E
330
1CF
100
AcDbEntity
  8
DV3_Default
  6
Continuous
 62
     7
 48
25.4
100
AcDbLine
 10
216.3687783351
 20
126.5625871738
 30
0.0
 11
216.7930424038
 21
126.9868512426
 31
0.0
  0
LINE
  5
25F
330
1CF
100
AcDbEntity
  8
DV3_Default
  6
Continuous
 62
     7
 48
25.4
100
AcDbLine
 10
216.3687783351
 20
145.1111153113
 30
0.0
 11
216.7930424038
 21
144.6868512426
 31
0.0
  0
LINE
  5
260
330
1CF
100
AcDbEntity
  8
DV3_Default
  6
Continuous
 62
     7
 48
25.4
100
AcDbLine
 10
211.6930424038
 20
126.9868512426
 30
0.0
 11
209.8930424038
 21
128.7868512426
 31
0.0
  0
LINE
  5
261
330
1CF
100
AcDbEntity
  8
DV3_Default
  6
Continuous
 62
     7
 48
25.4
100
AcDbLine
 10
211.2687783351
 20
126.5625871738
 30
0.0
 11
209.4687783351
 21
128.3625871738
 31
0.0
  0
LINE
  5
262
330
1CF
100
AcDbEntity
  8
DV3_Default
  6
Continuous
 62
     7
 48
25.4
100
AcDbLine
 10
211.6930424038
 20
144.6868512426
 30
0.0
 11
209.8930424038
 21
142.8868512426
 31
0.0
  0
LINE
  5
263
330
1CF
100
AcDbEntity
  8
DV3_Default
  6
Continuous
 62
     7
 48
25.4
100
AcDbLine
 10
211.2687783351
 20
145.1111153113
 30
0.0
 11
209.4687783351
 21
143.3111153113
 31
0.0
  0
LINE
  5
264
330
1CF
100
AcDbEntity
  8
DV3_Default
  6
Continuous
 62
     7
 48
25.4
100
AcDbLine
 10
223.9930424038
 20
120.2368512426
 30
0.0
 11
223.9930424038
 21
109.4368512426
 31
0.0
  0
LINE
  5
265
330
1CF
100
AcDbEntity
  8
DV3_Default
  6
Continuous
 62
     7
 48
25.4
100
AcDbLine
 10
223.9930424038
 20
151.4368512426
 30
0.0
 11
223.9930424038
 21
162.2368512426
 31
0.0
  0
ENDBLK
  5
267
330
1CF
100
AcDbEntity
  8
0
100
AcDbBlockEnd
  0
BLOCK
  5
273
330
268
100
AcDbEntity
  8
0
100
AcDbBlockBegin
  2
GDimGGroup
 70
     0
 71
     0
 10
0.0
 20
0.0
 30
0.0
  3
GDimGGroup
  1

  0
HATCH
  5
26A
330
268
100
AcDbEntity
  8
Default
  6
Continuous
 62
     7
 48
25.4
100
AcDbHatch
 10
0.0
 20
0.0
 30
0.0
210
0.0
220
0.0
230
1.0
  2
SOLID
 70
     1
 71
     0
 91
        1
 92
        1
 93
        3
 72
     1
 10
231.9834025010792
 20
245.5530710059358
 11
231.3167358027476
 21
249.5530711959256
 72
     1
 10
231.3167358027476
 20
249.5530711959256
 11
230.650069104416
 21
245.5530710059358
 72
     1
 10
230.650069104416
 20
245.5530710059358
 11
231.9834025010792
 21
245.5530710059358
 97
        0
 75
     0
 76
     1
 98
        0
  0
LWPOLYLINE
  5
26B
330
268
100
AcDbEntity
  8
Default
  6
Continuous
 62
     7
 48
25.4
370
    20
100
AcDbPolyline
 90
        4
 70
     1
 43
0.0
 10
231.9834025011
 20
245.5530710059
 10
231.3167358027
 20
249.5530711959
 10
230.6500691044
 20
245.5530710059
 10
231.9834025011
 20
245.5530710059
  0
HATCH
  5
26C
330
268
100
AcDbEntity
  8
Default
  6
Continuous
 62
     7
 48
25.4
100
AcDbHatch
 10
0.0
 20
0.0
 30
0.0
210
0.0
220
0.0
230
1.0
  2
SOLID
 70
     1
 71
     0
 91
        1
 92
        1
 93
        3
 72
     1
 10
231.9834025010792
 20
238.4635138797714
 11
230.650069104416
 21
238.4635138797714
 72
     1
 10
230.650069104416
 20
238.4635138797714
 11
231.3167358027476
 21
234.4635136897816
 72
     1
 10
231.3167358027476
 20
234.4635136897816
 11
231.9834025010792
 21
238.4635138797714
 97
        0
 75
     0
 76
     1
 98
        0
  0
LWPOLYLINE
  5
26D
330
268
100
AcDbEntity
  8
Default
  6
Continuous
 62
     7
 48
25.4
370
    20
100
AcDbPolyline
 90
        4
 70
     1
 43
0.0
 10
231.9834025011
 20
238.4635138798
 10
231.3167358027
 20
234.4635136898
 10
230.6500691044
 20
238.4635138798
 10
231.9834025011
 20
238.4635138798
  0
LINE
  5
26E
330
268
100
AcDbEntity
  8
Default
  6
Continuous
 62
     7
 48
25.4
100
AcDbLine
 10
216.6245093779
 20
249.5530711959
 30
0.0
 11
233.3167358977
 21
249.5530711959
 31
0.0
  0
LINE
  5
26F
330
268
100
AcDbEntity
  8
Default
  6
Continuous
 62
     7
 48
25.4
100
AcDbLine
 10
216.6245093779
 20
234.4635135466
 30
0.0
 11
233.3167358977
 21
234.4635135466
 31
0.0
  0
LINE
  5
270
330
268
100
AcDbEntity
  8
Default
  6
Continuous
 62
     7
 48
25.4
100
AcDbLine
 10
231.3167358027
 20
267.4450668047
 30
0.0
 11
231.3167358027
 21
234.4635136898
 31
0.0
  0
TEXT
  5
271
330
268
100
AcDbEntity
  8
Default
  6
Continuous
 62
     7
 48
25.4
100
AcDbText
 10
230.3167358027
 20
259.7841974208
 30
0.0
 40
4.0
  1
25
 50
90.0
  7
SEACAD_arial_ttf
 11
226.3167358027
 21
259.7841974208
 31
0.0
100
AcDbText
 73
     3
  0
TEXT
  5
272
330
268
100
AcDbEntity
  8
Default
  6
Continuous
 62
     7
 48
25.4
100
AcDbText
 10
230.3167358027
 20
252.4227939121
 30
0.0
 40
4.0
  1
O
 50
90.0
  7
SEACAD_semeca1_ttf
 11
226.3167358027
 21
252.4227939121
 31
0.0
100
AcDbText
 73
     3
  0
ENDBLK
  5
274
330
268
100
AcDbEntity
  8
0
100
AcDbBlockEnd
  0
BLOCK
  5
280
330
275
100
AcDbEntity
  8
0
100
AcDbBlockBegin
  2
GDimGGroup1
 70
     0
 71
     0
 10
0.0
 20
0.0
 30
0.0
  3
GDimGGroup1
  1

  0
HATCH
  5
277
330
275
100
AcDbEntity
  8
Default
  6
Continuous
 62
     7
 48
25.4
100
AcDbHatch
 10
0.0
 20
0.0
 30
0.0
210
0.0
220
0.0
230
1.0
  2
SOLID
 70
     1
 71
     0
 91
        1
 92
        1
 93
        3
 72
     1
 10
245.6999520750807
 20
133.5368514325467
 11
244.3666186784175
 21
133.5368514325467
 72
     1
 10
244.3666186784175
 20
133.5368514325467
 11
245.0332853767491
 21
129.5368512425569
 72
     1
 10
245.0332853767491
 20
129.5368512425569
 11
245.6999520750807
 21
133.5368514325467
 97
        0
 75
     0
 76
     1
 98
        0
  0
LWPOLYLINE
  5
278
330
275
100
AcDbEntity
  8
Default
  6
Continuous
 62
     7
 48
25.4
370
    20
100
AcDbPolyline
 90
        4
 70
     1
 43
0.0
 10
245.6999520751
 20
133.5368514325
 10
245.0332853767
 20
129.5368512426
 10
244.3666186784
 20
133.5368514325
 10
245.6999520751
 20
133.5368514325
  0
HATCH
  5
279
330
275
100
AcDbEntity
  8
Default
  6
Continuous
 62
     7
 48
25.4
100
AcDbHatch
 10
0.0
 20
0.0
 30
0.0
210
0.0
220
0.0
230
1.0
  2
SOLID
 70
     1
 71
     0
 91
        1
 92
        1
 93
        3
 72
     1
 10
245.6999520750807
 20
138.1368510689583
 11
245.0332853767491
 21
142.1368512589481
 72
     1
 10
245.0332853767491
 20
142.1368512589481
 11
244.3666186784175
 21
138.1368510689583
 72
     1
 10
244.3666186784175
 20
138.1368510689583
 11
245.6999520750807
 21
138.1368510689583
 97
        0
 75
     0
 76
     1
 98
        0
  0
LWPOLYLINE
  5
27A
330
275
100
AcDbEntity
  8
Default
  6
Continuous
 62
     7
 48
25.4
370
    20
100
AcDbPolyline
 90
        4
 70
     1
 43
0.0
 10
245.6999520751
 20
138.136851069
 10
245.0332853767
 20
142.1368512589
 10
244.3666186784
 20
138.136851069
 10
245.6999520751
 20
138.136851069
  0
LINE
  5
27B
330
275
100
AcDbEntity
  8
Default
  6
Continuous
 62
     7
 48
25.4
100
AcDbLine
 10
226.5430426049
 20
129.5368512426
 30
0.0
 11
247.0332854717
 21
129.5368512426
 31
0.0
  0
LINE
  5
27C
330
275
100
AcDbEntity
  8
Default
  6
Continuous
 62
     7
 48
25.4
100
AcDbLine
 10
226.5430426049
 20
142.1368512426
 30
0.0
 11
247.0332854717
 21
142.1368512426
 31
0.0
  0
LINE
  5
27D
330
275
100
AcDbEntity
  8
Default
  6
Continuous
 62
     7
 48
25.4
100
AcDbLine
 10
245.0332853767
 20
91.6579132233
 30
0.0
 11
245.0332853767
 21
142.1368512589
 31
0.0
  0
TEXT
  5
27E
330
275
100
AcDbEntity
  8
Default
  6
Continuous
 62
     7
 48
25.4
100
AcDbText
 10
244.0332853767
 20
93.057914225
 30
0.0
 40
4.0
  1
21
 50
90.0
  7
SEACAD_arial_ttf
 11
240.0332853767
 21
93.057914225
 31
0.0
100
AcDbText
 73
     3
  0
TEXT
  5
27F
330
275
100
AcDbEntity
  8
Default
  6
Continuous
 62
     7
 48
25.4
100
AcDbText
 10
244.0332853767
 20
101.7187837902
 30
0.0
 40
4.0
  1
H8/h8
 50
90.0
  7
SEACAD_arial_ttf
 11
240.0332853767
 21
101.7187837902
 31
0.0
100
AcDbText
 73
     3
  0
ENDBLK
  5
281
330
275
100
AcDbEntity
  8
0
100
AcDbBlockEnd
  0
BLOCK
  5
28C
330
282
100
AcDbEntity
  8
0
100
AcDbBlockBegin
  2
GDimGGroup2
 70
     0
 71
     0
 10
0.0
 20
0.0
 30
0.0
  3
GDimGGroup2
  1

  0
HATCH
  5
284
330
282
100
AcDbEntity
  8
Default
  6
Continuous
 62
     7
 48
25.4
100
AcDbHatch
 10
0.0
 20
0.0
 30
0.0
210
0.0
220
0.0
230
1.0
  2
SOLID
 70
     1
 71
     0
 91
        1
 92
        1
 93
        3
 72
     1
 10
259.1547890963125
 20
124.2368514325466
 11
257.8214556996492
 21
124.2368514325466
 72
     1
 10
257.8214556996492
 20
124.2368514325466
 11
258.4881223979808
 21
120.2368512425568
 72
     1
 10
258.4881223979808
 20
120.2368512425568
 11
259.1547890963125
 21
124.2368514325466
 97
        0
 75
     0
 76
     1
 98
        0
  0
LWPOLYLINE
  5
285
330
282
100
AcDbEntity
  8
Default
  6
Continuous
 62
     7
 48
25.4
370
    20
100
AcDbPolyline
 90
        4
 70
     1
 43
0.0
 10
259.1547890963
 20
124.2368514325
 10
258.488122398
 20
120.2368512426
 10
257.8214556996
 20
124.2368514325
 10
259.1547890963
 20
124.2368514325
  0
HATCH
  5
286
330
282
100
AcDbEntity
  8
Default
  6
Continuous
 62
     7
 48
25.4
100
AcDbHatch
 10
0.0
 20
0.0
 30
0.0
210
0.0
220
0.0
230
1.0
  2
SOLID
 70
     1
 71
     0
 91
        1
 92
        1
 93
        3
 72
     1
 10
259.1547890963125
 20
147.4368502061811
 11
258.4881223979808
 21
151.4368503961709
 72
     1
 10
258.4881223979808
 20
151.4368503961709
 11
257.8214556996492
 21
147.4368502061811
 72
     1
 10
257.8214556996492
 20
147.4368502061811
 11
259.1547890963125
 21
147.4368502061811
 97
        0
 75
     0
 76
     1
 98
        0
  0
LWPOLYLINE
  5
287
330
282
100
AcDbEntity
  8
Default
  6
Continuous
 62
     7
 48
25.4
370
    20
100
AcDbPolyline
 90
        4
 70
     1
 43
0.0
 10
259.1547890963
 20
147.4368502062
 10
258.488122398
 20
151.4368503962
 10
257.8214556996
 20
147.4368502062
 10
259.1547890963
 20
147.4368502062
  0
LINE
  5
288
330
282
100
AcDbEntity
  8
Default
  6
Continuous
 62
     7
 48
25.4
100
AcDbLine
 10
223.9930425081
 20
120.2368512426
 30
0.0
 11
260.488122493
 21
120.2368512426
 31
0.0
  0
LINE
  5
289
330
282
100
AcDbEntity
  8
Default
  6
Continuous
 62
     7
 48
25.4
100
AcDbLine
 10
223.9930425081
 20
151.4368512426
 30
0.0
 11
260.488122493
 21
151.4368512426
 31
0.0
  0
LINE
  5
28A
330
282
100
AcDbEntity
  8
Default
  6
Continuous
 62
     7
 48
25.4
100
AcDbLine
 10
258.488122398
 20
120.2368512426
 30
0.0
 11
258.488122398
 21
151.4368503962
 31
0.0
  0
TEXT
  5
28B
330
282
100
AcDbEntity
  8
Default
  6
Continuous
 62
     7
 48
25.4
100
AcDbText
 10
257.488122398
 20
132.7064160368
 30
0.0
 40
4.0
  1
52
 50
90.0
  7
SEACAD_arial_ttf
 11
253.488122398
 21
132.7064160368
 31
0.0
100
AcDbText
 73
     3
  0
ENDBLK
  5
28D
330
282
100
AcDbEntity
  8
0
100
AcDbBlockEnd
  0
BLOCK
  5
298
330
28E
100
AcDbEntity
  8
0
100
AcDbBlockBegin
  2
GDimGGroup3
 70
     0
 71
     0
 10
0.0
 20
0.0
 30
0.0
  3
GDimGGroup3
  1

  0
HATCH
  5
290
330
28E
100
AcDbEntity
  8
Default
  6
Continuous
 62
     7
 48
25.4
100
AcDbHatch
 10
0.0
 20
0.0
 30
0.0
210
0.0
220
0.0
230
1.0
  2
SOLID
 70
     1
 71
     0
 91
        1
 92
        1
 93
        3
 72
     1
 10
230.5430425937689
 20
163.9487485739089
 11
226.5430424037791
 21
163.2820818755772
 72
     1
 10
226.5430424037791
 20
163.2820818755772
 11
230.5430425937689
 21
162.6154151772456
 72
     1
 10
230.5430425937689
 20
162.6154151772456
 11
230.5430425937689
 21
163.9487485739089
 97
        0
 75
     0
 76
     1
 98
        0
  0
LWPOLYLINE
  5
291
330
28E
100
AcDbEntity
  8
Default
  6
Continuous
 62
     7
 48
25.4
370
    20
100
AcDbPolyline
 90
        4
 70
     1
 43
0.0
 10
230.5430425938
 20
163.9487485739
 10
226.5430424038
 20
163.2820818756
 10
230.5430425938
 20
162.6154151772
 10
230.5430425938
 20
163.9487485739
  0
HATCH
  5
292
330
28E
100
AcDbEntity
  8
Default
  6
Continuous
 62
     7
 48
25.4
100
AcDbHatch
 10
0.0
 20
0.0
 30
0.0
210
0.0
220
0.0
230
1.0
  2
SOLID
 70
     1
 71
     0
 91
        1
 92
        1
 93
        3
 72
     1
 10
221.1930422137893
 20
163.9487485739089
 11
221.1930422137893
 21
162.6154151772456
 72
     1
 10
221.1930422137893
 20
162.6154151772456
 11
225.1930424037791
 21
163.2820818755772
 72
     1
 10
225.1930424037791
 20
163.2820818755772
 11
221.1930422137893
 21
163.9487485739089
 97
        0
 75
     0
 76
     1
 98
        0
  0
LWPOLYLINE
  5
293
330
28E
100
AcDbEntity
  8
Default
  6
Continuous
 62
     7
 48
25.4
370
    20
100
AcDbPolyline
 90
        4
 70
     1
 43
0.0
 10
221.1930422138
 20
163.9487485739
 10
225.1930424038
 20
163.2820818756
 10
221.1930422138
 20
162.6154151772
 10
221.1930422138
 20
163.9487485739
  0
LINE
  5
294
330
28E
100
AcDbEntity
  8
Default
  6
Continuous
 62
     7
 48
25.4
100
AcDbLine
 10
226.5430424038
 20
135.8368512426
 30
0.0
 11
226.5430424038
 21
165.2820819706
 31
0.0
  0
LINE
  5
295
330
28E
100
AcDbEntity
  8
Default
  6
Continuous
 62
     7
 48
25.4
100
AcDbLine
 10
225.1930424038
 20
142.1368512426
 30
0.0
 11
225.1930424038
 21
165.2820819706
 31
0.0
  0
LINE
  5
296
330
28E
100
AcDbEntity
  8
Default
  6
Continuous
 62
     7
 48
25.4
100
AcDbLine
 10
243.773733792
 20
163.2820818756
 30
0.0
 11
217.1930424544
 21
163.2820818756
 31
0.0
  0
TEXT
  5
297
330
28E
100
AcDbEntity
  8
Default
  6
Continuous
 62
     7
 48
25.4
100
AcDbText
 10
231.4172115817
 20
164.2820818756
 30
0.0
 40
4.0
  1
2.25
  7
SEACAD_arial_ttf
 11
231.4172115817
 21
168.2820818756
 31
0.0
100
AcDbText
 73
     3
  0
ENDBLK
  5
299
330
28E
100
AcDbEntity
  8
0
100
AcDbBlockEnd
  0
BLOCK
  5
2A4
330
29A
100
AcDbEntity
  8
0
100
AcDbBlockBegin
  2
GDimGGroup4
 70
     0
 71
     0
 10
0.0
 20
0.0
 30
0.0
  3
GDimGGroup4
  1

  0
HATCH
  5
29C
330
29A
100
AcDbEntity
  8
Default
  6
Continuous
 62
     7
 48
25.4
100
AcDbHatch
 10
0.0
 20
0.0
 30
0.0
210
0.0
220
0.0
230
1.0
  2
SOLID
 70
     1
 71
     0
 91
        1
 92
        1
 93
        3
 72
     1
 10
229.1930425937689
 20
163.9487481000519
 11
225.1930424037791
 21
163.2820814017203
 72
     1
 10
225.1930424037791
 20
163.2820814017203
 11
229.1930425937689
 21
162.6154147033887
 72
     1
 10
229.1930425937689
 20
162.6154147033887
 11
229.1930425937689
 21
163.9487481000519
 97
        0
 75
     0
 76
     1
 98
        0
  0
LWPOLYLINE
  5
29D
330
29A
100
AcDbEntity
  8
Default
  6
Continuous
 62
     7
 48
25.4
370
    20
100
AcDbPolyline
 90
        4
 70
     1
 43
0.0
 10
229.1930425938
 20
163.9487481001
 10
225.1930424038
 20
163.2820814017
 10
229.1930425938
 20
162.6154147034
 10
229.1930425938
 20
163.9487481001
  0
HATCH
  5
29E
330
29A
100
AcDbEntity
  8
Default
  6
Continuous
 62
     7
 48
25.4
100
AcDbHatch
 10
0.0
 20
0.0
 30
0.0
210
0.0
220
0.0
230
1.0
  2
SOLID
 70
     1
 71
     0
 91
        1
 92
        1
 93
        3
 72
     1
 10
219.9930422137893
 20
163.9487481000519
 11
219.9930422137893
 21
162.6154147033887
 72
     1
 10
219.9930422137893
 20
162.6154147033887
 11
223.9930424037791
 21
163.2820814017203
 72
     1
 10
223.9930424037791
 20
163.2820814017203
 11
219.9930422137893
 21
163.9487481000519
 97
        0
 75
     0
 76
     1
 98
        0
  0
LWPOLYLINE
  5
29F
330
29A
100
AcDbEntity
  8
Default
  6
Continuous
 62
     7
 48
25.4
370
    20
100
AcDbPolyline
 90
        4
 70
     1
 43
0.0
 10
219.9930422138
 20
163.9487481001
 10
223.9930424038
 20
163.2820814017
 10
219.9930422138
 20
162.6154147034
 10
219.9930422138
 20
163.9487481001
  0
LINE
  5
2A0
330
29A
100
AcDbEntity
  8
Default
  6
Continuous
 62
     7
 48
25.4
100
AcDbLine
 10
225.1930424038
 20
142.1368512426
 30
0.0
 11
225.1930424038
 21
165.2820814967
 31
0.0
  0
LINE
  5
2A1
330
29A
100
AcDbEntity
  8
Default
  6
Continuous
 62
     7
 48
25.4
100
AcDbLine
 10
223.9930424038
 20
162.2368512426
 30
0.0
 11
223.9930424038
 21
165.2820814967
 31
0.0
  0
LINE
  5
2A2
330
29A
100
AcDbEntity
  8
Default
  6
Continuous
 62
     7
 48
25.4
100
AcDbLine
 10
233.1930427838
 20
163.2820814017
 30
0.0
 11
212.0442261014
 21
163.2820814017
 31
0.0
  0
TEXT
  5
2A3
330
29A
100
AcDbEntity
  8
Default
  6
Continuous
 62
     7
 48
25.4
100
AcDbText
 10
213.4442262312
 20
164.2820814017
 30
0.0
 40
4.0
  1
2
  7
SEACAD_arial_ttf
 11
213.4442262312
 21
168.2820814017
 31
0.0
100
AcDbText
 73
     3
  0
ENDBLK
  5
2A5
330
29A
100
AcDbEntity
  8
0
100
AcDbBlockEnd
  0
BLOCK
  5
2B0
330
2A6
100
AcDbEntity
  8
0
100
AcDbBlockBegin
  2
GDimGGroup5
 70
     0
 71
     0
 10
0.0
 20
0.0
 30
0.0
  3
GDimGGroup5
  1

  0
HATCH
  5
2A8
330
2A6
100
AcDbEntity
  8
Default
  6
Continuous
 62
     7
 48
25.4
100
AcDbHatch
 10
0.0
 20
0.0
 30
0.0
210
0.0
220
0.0
230
1.0
  2
SOLID
 70
     1
 71
     0
 91
        1
 92
        1
 93
        3
 72
     1
 10
212.6204504877032
 20
176.8437018407521
 11
216.620450677693
 21
177.5103685390837
 72
     1
 10
216.620450677693
 20
177.5103685390837
 11
212.6204504877032
 21
178.1770352374153
 72
     1
 10
212.6204504877032
 20
178.1770352374153
 11
212.6204504877032
 21
176.8437018407521
 97
        0
 75
     0
 76
     1
 98
        0
  0
LWPOLYLINE
  5
2A9
330
2A6
100
AcDbEntity
  8
Default
  6
Continuous
 62
     7
 48
25.4
370
    20
100
AcDbPolyline
 90
        4
 70
     1
 43
0.0
 10
212.6204504877
 20
176.8437018408
 10
216.6204506777
 20
177.5103685391
 10
212.6204504877
 20
178.1770352374
 10
212.6204504877
 20
176.8437018408
  0
HATCH
  5
2AA
330
2A6
100
AcDbEntity
  8
Default
  6
Continuous
 62
     7
 48
25.4
100
AcDbHatch
 10
0.0
 20
0.0
 30
0.0
210
0.0
220
0.0
230
1.0
  2
SOLID
 70
     1
 71
     0
 91
        1
 92
        1
 93
        3
 72
     1
 10
143.2204519644083
 20
176.8437018407521
 11
143.2204519644083
 21
178.1770352374153
 72
     1
 10
143.2204519644083
 20
178.1770352374153
 11
139.2204517744185
 21
177.5103685390837
 72
     1
 10
139.2204517744185
 20
177.5103685390837
 11
143.2204519644083
 21
176.8437018407521
 97
        0
 75
     0
 76
     1
 98
        0
  0
LWPOLYLINE
  5
2AB
330
2A6
100
AcDbEntity
  8
Default
  6
Continuous
 62
     7
 48
25.4
370
    20
100
AcDbPolyline
 90
        4
 70
     1
 43
0.0
 10
143.2204519644
 20
176.8437018408
 10
139.2204517744
 20
177.5103685391
 10
143.2204519644
 20
178.1770352374
 10
143.2204519644
 20
176.8437018408
  0
LINE
  5
2AC
330
2A6
100
AcDbEntity
  8
Default
  6
Continuous
 62
     7
 48
25.4
100
AcDbLine
 10
216.6204506777
 20
202.1791831535
 30
0.0
 11
216.6204506777
 21
175.5103684441
 31
0.0
  0
LINE
  5
2AD
330
2A6
100
AcDbEntity
  8
Default
  6
Continuous
 62
     7
 48
25.4
100
AcDbLine
 10
139.2204506777
 20
228.9425100604
 30
0.0
 11
139.2204506777
 21
175.5103684441
 31
0.0
  0
LINE
  5
2AE
330
2A6
100
AcDbEntity
  8
Default
  6
Continuous
 62
     7
 48
25.4
100
AcDbLine
 10
216.6204506777
 20
177.5103685391
 30
0.0
 11
139.2204517744
 21
177.5103685391
 31
0.0
  0
TEXT
  5
2AF
330
2A6
100
AcDbEntity
  8
Default
  6
Continuous
 62
     7
 48
25.4
100
AcDbText
 10
173.2247990521
 20
178.5103685391
 30
0.0
 40
4.0
  1
129
  7
SEACAD_arial_ttf
 11
173.2247990521
 21
182.5103685391
 31
0.0
100
AcDbText
 73
     3
  0
ENDBLK
  5
2B1
330
2A6
100
AcDbEntity
  8
0
100
AcDbBlockEnd
  0
BLOCK
  5
2BB
330
2B2
100
AcDbEntity
  8
0
100
AcDbBlockBegin
  2
GDimGGroup6
 70
     0
 71
     0
 10
0.0
 20
0.0
 30
0.0
  3
GDimGGroup6
  1

  0
HATCH
  5
2B4
330
2B2
100
AcDbEntity
  8
Default
  6
Continuous
 62
     7
 48
25.4
100
AcDbHatch
 10
0.0
 20
0.0
 30
0.0
210
0.0
220
0.0
230
1.0
  2
SOLID
 70
     1
 71
     0
 91
        1
 92
        1
 93
        3
 72
     1
 10
158.2204508676828
 20
213.9509886364244
 11
158.2204508676828
 21
215.2843220330877
 72
     1
 10
158.2204508676828
 20
215.2843220330877
 11
154.220450677693
 21
214.617655334756
 72
     1
 10
154.220450677693
 20
214.617655334756
 11
158.2204508676828
 21
213.9509886364244
 97
        0
 75
     0
 76
     1
 98
        0
  0
LWPOLYLINE
  5
2B5
330
2B2
100
AcDbEntity
  8
Default
  6
Continuous
 62
     7
 48
25.4
370
    20
100
AcDbPolyline
 90
        4
 70
     1
 43
0.0
 10
158.2204508677
 20
213.9509886364
 10
154.2204506777
 20
214.6176553348
 10
158.2204508677
 20
215.2843220331
 10
158.2204508677
 20
213.9509886364
  0
HATCH
  5
2B6
330
2B2
100
AcDbEntity
  8
Default
  6
Continuous
 62
     7
 48
25.4
100
AcDbHatch
 10
0.0
 20
0.0
 30
0.0
210
0.0
220
0.0
230
1.0
  2
SOLID
 70
     1
 71
     0
 91
        1
 92
        1
 93
        3
 72
     1
 10
146.6204504877032
 20
213.9509886364244
 11
150.620450677693
 21
214.617655334756
 72
     1
 10
150.620450677693
 20
214.617655334756
 11
146.6204504877032
 21
215.2843220330877
 72
     1
 10
146.6204504877032
 20
215.2843220330877
 11
146.6204504877032
 21
213.9509886364244
 97
        0
 75
     0
 76
     1
 98
        0
  0
LWPOLYLINE
  5
2B7
330
2B2
100
AcDbEntity
  8
Default
  6
Continuous
 62
     7
 48
25.4
370
    20
100
AcDbPolyline
 90
        4
 70
     1
 43
0.0
 10
146.6204504877
 20
213.9509886364
 10
150.6204506777
 20
214.6176553348
 10
146.6204504877
 20
215.2843220331
 10
146.6204504877
 20
213.9509886364
  0
LINE
  5
2B8
330
2B2
100
AcDbEntity
  8
Default
  6
Continuous
 62
     7
 48
25.4
100
AcDbLine
 10
154.2204506777
 20
228.0425100604
 30
0.0
 11
154.2204506777
 21
212.6176552398
 31
0.0
  0
LINE
  5
2B9
330
2B2
100
AcDbEntity
  8
Default
  6
Continuous
 62
     7
 48
25.4
100
AcDbLine
 10
163.133854986
 20
214.6176553348
 30
0.0
 11
142.6204508252
 21
214.6176553348
 31
0.0
  0
TEXT
  5
2BA
330
2B2
100
AcDbEntity
  8
Default
  6
Continuous
 62
     7
 48
25.4
100
AcDbText
 10
158.6034205392
 20
215.6176553348
 30
0.0
 40
4.0
  1
6
  7
SEACAD_arial_ttf
 11
158.6034205392
 21
219.6176553348
 31
0.0
100
AcDbText
 73
     3
  0
ENDBLK
  5
2BC
330
2B2
100
AcDbEntity
  8
0
100
AcDbBlockEnd
  0
BLOCK
  5
2C7
330
2BD
100
AcDbEntity
  8
0
100
AcDbBlockBegin
  2
GDimGGroup7
 70
     0
 71
     0
 10
0.0
 20
0.0
 30
0.0
  3
GDimGGroup7
  1

  0
HATCH
  5
2BF
330
2BD
100
AcDbEntity
  8
Default
  6
Continuous
 62
     7
 48
25.4
100
AcDbHatch
 10
0.0
 20
0.0
 30
0.0
210
0.0
220
0.0
230
1.0
  2
SOLID
 70
     1
 71
     0
 91
        1
 92
        1
 93
        3
 72
     1
 10
150.2204504877032
 20
187.9581667343877
 11
154.220450677693
 21
188.6248334327194
 72
     1
 10
154.220450677693
 20
188.6248334327194
 11
150.2204504877032
 21
189.291500131051
 72
     1
 10
150.2204504877032
 20
189.291500131051
 11
150.2204504877032
 21
187.9581667343877
 97
        0
 75
     0
 76
     1
 98
        0
  0
LWPOLYLINE
  5
2C0
330
2BD
100
AcDbEntity
  8
Default
  6
Continuous
 62
     7
 48
25.4
370
    20
100
AcDbPolyline
 90
        4
 70
     1
 43
0.0
 10
150.2204504877
 20
187.9581667344
 10
154.2204506777
 20
188.6248334327
 10
150.2204504877
 20
189.2915001311
 10
150.2204504877
 20
187.9581667344
  0
HATCH
  5
2C1
330
2BD
100
AcDbEntity
  8
Default
  6
Continuous
 62
     7
 48
25.4
100
AcDbHatch
 10
0.0
 20
0.0
 30
0.0
210
0.0
220
0.0
230
1.0
  2
SOLID
 70
     1
 71
     0
 91
        1
 92
        1
 93
        3
 72
     1
 10
143.2204512029589
 20
187.9581667343877
 11
143.2204512029589
 21
189.291500131051
 72
     1
 10
143.2204512029589
 20
189.291500131051
 11
139.2204510129691
 21
188.6248334327194
 72
     1
 10
139.2204510129691
 20
188.6248334327194
 11
143.2204512029589
 21
187.9581667343877
 97
        0
 75
     0
 76
     1
 98
        0
  0
LWPOLYLINE
  5
2C2
330
2BD
100
AcDbEntity
  8
Default
  6
Continuous
 62
     7
 48
25.4
370
    20
100
AcDbPolyline
 90
        4
 70
     1
 43
0.0
 10
143.220451203
 20
187.9581667344
 10
139.220451013
 20
188.6248334327
 10
143.220451203
 20
189.2915001311
 10
143.220451203
 20
187.9581667344
  0
LINE
  5
2C3
330
2BD
100
AcDbEntity
  8
Default
  6
Continuous
 62
     7
 48
25.4
100
AcDbLine
 10
154.2204506777
 20
228.0425100604
 30
0.0
 11
154.2204506777
 21
186.6248333377
 31
0.0
  0
LINE
  5
2C4
330
2BD
100
AcDbEntity
  8
Default
  6
Continuous
 62
     7
 48
25.4
100
AcDbLine
 10
139.2204506777
 20
228.9425100604
 30
0.0
 11
139.2204506777
 21
186.6248333377
 31
0.0
  0
LINE
  5
2C5
330
2BD
100
AcDbEntity
  8
Default
  6
Continuous
 62
     7
 48
25.4
100
AcDbLine
 10
154.2204506777
 20
188.6248334327
 30
0.0
 11
139.220451013
 21
188.6248334327
 31
0.0
  0
TEXT
  5
2C6
330
2BD
100
AcDbEntity
  8
Default
  6
Continuous
 62
     7
 48
25.4
100
AcDbText
 10
143.5900160627
 20
189.6248334327
 30
0.0
 40
4.0
  1
25
  7
SEACAD_arial_ttf
 11
143.5900160627
 21
193.6248334327
 31
0.0
100
AcDbText
 73
     3
  0
ENDBLK
  5
2C8
330
2BD
100
AcDbEntity
  8
0
100
AcDbBlockEnd
  0
BLOCK
  5
2D3
330
2C9
100
AcDbEntity
  8
0
100
AcDbBlockBegin
  2
GDimGGroup8
 70
     0
 71
     0
 10
0.0
 20
0.0
 30
0.0
  3
GDimGGroup8
  1

  0
HATCH
  5
2CB
330
2C9
100
AcDbEntity
  8
Default
  6
Continuous
 62
     7
 48
25.4
100
AcDbHatch
 10
0.0
 20
0.0
 30
0.0
210
0.0
220
0.0
230
1.0
  2
SOLID
 70
     1
 71
     0
 91
        1
 92
        1
 93
        3
 72
     1
 10
124.1204528343696
 20
213.9509872970989
 11
128.1204530243594
 21
214.6176539954305
 72
     1
 10
128.1204530243594
 20
214.6176539954305
 11
124.1204528343696
 21
215.2843206937622
 72
     1
 10
124.1204528343696
 20
215.2843206937622
 11
124.1204528343696
 21
213.9509872970989
 97
        0
 75
     0
 76
     1
 98
        0
  0
LWPOLYLINE
  5
2CC
330
2C9
100
AcDbEntity
  8
Default
  6
Continuous
 62
     7
 48
25.4
370
    20
100
AcDbPolyline
 90
        4
 70
     1
 43
0.0
 10
124.1204528344
 20
213.9509872971
 10
128.1204530244
 20
214.6176539954
 10
124.1204528344
 20
215.2843206938
 10
124.1204528344
 20
213.9509872971
  0
HATCH
  5
2CD
330
2C9
100
AcDbEntity
  8
Default
  6
Continuous
 62
     7
 48
25.4
100
AcDbHatch
 10
0.0
 20
0.0
 30
0.0
210
0.0
220
0.0
230
1.0
  2
SOLID
 70
     1
 71
     0
 91
        1
 92
        1
 93
        3
 72
     1
 10
143.2204508676828
 20
213.9509872970989
 11
143.2204508676828
 21
215.2843206937622
 72
     1
 10
143.2204508676828
 20
215.2843206937622
 11
139.220450677693
 21
214.6176539954305
 72
     1
 10
139.220450677693
 20
214.6176539954305
 11
143.2204508676828
 21
213.9509872970989
 97
        0
 75
     0
 76
     1
 98
        0
  0
LWPOLYLINE
  5
2CE
330
2C9
100
AcDbEntity
  8
Default
  6
Continuous
 62
     7
 48
25.4
370
    20
100
AcDbPolyline
 90
        4
 70
     1
 43
0.0
 10
143.2204508677
 20
213.9509872971
 10
139.2204506777
 20
214.6176539954
 10
143.2204508677
 20
215.2843206938
 10
143.2204508677
 20
213.9509872971
  0
LINE
  5
2CF
330
2C9
100
AcDbEntity
  8
Default
  6
Continuous
 62
     7
 48
25.4
100
AcDbLine
 10
128.1204530244
 20
249.7558288869
 30
0.0
 11
128.1204530244
 21
212.6176539004
 31
0.0
  0
LINE
  5
2D0
330
2C9
100
AcDbEntity
  8
Default
  6
Continuous
 62
     7
 48
25.4
100
AcDbLine
 10
139.2204506777
 20
228.9425100604
 30
0.0
 11
139.2204506777
 21
212.6176539004
 31
0.0
  0
LINE
  5
2D1
330
2C9
100
AcDbEntity
  8
Default
  6
Continuous
 62
     7
 48
25.4
100
AcDbLine
 10
120.1204526444
 20
214.6176539954
 30
0.0
 11
147.2204503809
 21
214.6176539954
 31
0.0
  0
TEXT
  5
2D2
330
2C9
100
AcDbEntity
  8
Default
  6
Continuous
 62
     7
 48
25.4
100
AcDbText
 10
128.1921911087
 20
215.6176539954
 30
0.0
 40
4.0
  1
18.5
  7
SEACAD_arial_ttf
 11
128.1921911087
 21
219.6176539954
 31
0.0
100
AcDbText
 73
     3
  0
ENDBLK
  5
2D4
330
2C9
100
AcDbEntity
  8
0
100
AcDbBlockEnd
  0
BLOCK
  5
2DE
330
2D5
100
AcDbEntity
  8
0
100
AcDbBlockBegin
  2
GDimGGroup9
 70
     0
 71
     0
 10
0.0
 20
0.0
 30
0.0
  3
GDimGGroup9
  1

  0
HATCH
  5
2D7
330
2D5
100
AcDbEntity
  8
Default
  6
Continuous
 62
     7
 48
25.4
100
AcDbHatch
 10
0.0
 20
0.0
 30
0.0
210
0.0
220
0.0
230
1.0
  2
SOLID
 70
     1
 71
     0
 91
        1
 92
        1
 93
        3
 72
     1
 10
200.3470580529435
 20
270.0791858004112
 11
201.0137247512751
 21
266.0791856104214
 72
     1
 10
201.0137247512751
 20
266.0791856104214
 11
201.6803914496067
 21
270.0791858004112
 72
     1
 10
201.6803914496067
 20
270.0791858004112
 11
200.3470580529435
 21
270.0791858004112
 97
        0
 75
     0
 76
     1
 98
        0
  0
LWPOLYLINE
  5
2D8
330
2D5
100
AcDbEntity
  8
Default
  6
Continuous
 62
     7
 48
25.4
370
    20
100
AcDbPolyline
 90
        4
 70
     1
 43
0.0
 10
200.3470580529
 20
270.0791858004
 10
201.0137247513
 20
266.0791856104
 10
201.6803914496
 20
270.0791858004
 10
200.3470580529
 20
270.0791858004
  0
HATCH
  5
2D9
330
2D5
100
AcDbEntity
  8
Default
  6
Continuous
 62
     7
 48
25.4
100
AcDbHatch
 10
0.0
 20
0.0
 30
0.0
210
0.0
220
0.0
230
1.0
  2
SOLID
 70
     1
 71
     0
 91
        1
 92
        1
 93
        3
 72
     1
 10
200.3470580529435
 20
316.679182076611
 11
201.6803914496067
 21
316.679182076611
 72
     1
 10
201.6803914496067
 20
316.679182076611
 11
201.0137247512751
 21
320.6791822666008
 72
     1
 10
201.0137247512751
 20
320.6791822666008
 11
200.3470580529435
 21
316.679182076611
 97
        0
 75
     0
 76
     1
 98
        0
  0
LWPOLYLINE
  5
2DA
330
2D5
100
AcDbEntity
  8
Default
  6
Continuous
 62
     7
 48
25.4
370
    20
100
AcDbPolyline
 90
        4
 70
     1
 43
0.0
 10
200.3470580529
 20
316.6791820766
 10
201.0137247513
 20
320.6791822666
 10
201.6803914496
 20
316.6791820766
 10
200.3470580529
 20
316.6791820766
  0
LINE
  5
2DB
330
2D5
100
AcDbEntity
  8
Default
  6
Continuous
 62
     7
 48
25.4
100
AcDbLine
 10
201.0137247513
 20
266.0791856104
 30
0.0
 11
201.0137247513
 21
320.6791822666
 31
0.0
  0
TEXT
  5
2DC
330
2D5
100
AcDbEntity
  8
Default
  6
Continuous
 62
     7
 48
25.4
100
AcDbText
 10
200.0137247513
 20
293.9294509103
 30
0.0
 40
4.0
  1
91
 50
90.0
  7
SEACAD_arial_ttf
 11
196.0137247513
 21
293.9294509103
 31
0.0
100
AcDbText
 73
     3
  0
TEXT
  5
2DD
330
2D5
100
AcDbEntity
  8
Default
  6
Continuous
 62
     7
 48
25.4
100
AcDbText
 10
200.0137247513
 20
286.5680474015
 30
0.0
 40
4.0
  1
O
 50
90.0
  7
SEACAD_semeca1_ttf
 11
196.0137247513
 21
286.5680474015
 31
0.0
100
AcDbText
 73
     3
  0
ENDBLK
  5
2DF
330
2D5
100
AcDbEntity
  8
0
100
AcDbBlockEnd
  0
BLOCK
  5
2EB
330
2E0
100
AcDbEntity
  8
0
100
AcDbBlockBegin
  2
GDimGGroup10
 70
     0
 71
     0
 10
0.0
 20
0.0
 30
0.0
  3
GDimGGroup10
  1

  0
HATCH
  5
2E2
330
2E0
100
AcDbEntity
  8
Default
  6
Continuous
 62
     7
 48
25.4
100
AcDbHatch
 10
0.0
 20
0.0
 30
0.0
210
0.0
220
0.0
230
1.0
  2
SOLID
 70
     1
 71
     0
 91
        1
 92
        1
 93
        3
 72
     1
 10
73.36079247854778
 20
264.979181401167
 11
74.02745917687942
 21
260.9791812111772
 72
     1
 10
74.02745917687942
 20
260.9791812111772
 11
74.69412587521106
 21
264.979181401167
 72
     1
 10
74.69412587521106
 20
264.979181401167
 11
73.36079247854778
 21
264.979181401167
 97
        0
 75
     0
 76
     1
 98
        0
  0
LWPOLYLINE
  5
2E3
330
2E0
100
AcDbEntity
  8
Default
  6
Continuous
 62
     7
 48
25.4
370
    20
100
AcDbPolyline
 90
        4
 70
     1
 43
0.0
 10
73.3607924785
 20
264.9791814012
 10
74.0274591769
 20
260.9791812112
 10
74.6941258752
 20
264.9791814012
 10
73.3607924785
 20
264.9791814012
  0
HATCH
  5
2E4
330
2E0
100
AcDbEntity
  8
Default
  6
Continuous
 62
     7
 48
25.4
100
AcDbHatch
 10
0.0
 20
0.0
 30
0.0
210
0.0
220
0.0
230
1.0
  2
SOLID
 70
     1
 71
     0
 91
        1
 92
        1
 93
        3
 72
     1
 10
73.36079247854778
 20
321.7791827020384
 11
74.69412587521106
 21
321.7791827020384
 72
     1
 10
74.69412587521106
 20
321.7791827020384
 11
74.02745917687942
 21
325.7791828920282
 72
     1
 10
74.02745917687942
 20
325.7791828920282
 11
73.36079247854778
 21
321.7791827020384
 97
        0
 75
     0
 76
     1
 98
        0
  0
LWPOLYLINE
  5
2E5
330
2E0
100
AcDbEntity
  8
Default
  6
Continuous
 62
     7
 48
25.4
370
    20
100
AcDbPolyline
 90
        4
 70
     1
 43
0.0
 10
73.3607924785
 20
321.779182702
 10
74.0274591769
 20
325.779182892
 10
74.6941258752
 20
321.779182702
 10
73.3607924785
 20
321.779182702
  0
LINE
  5
2E6
330
2E0
100
AcDbEntity
  8
Default
  6
Continuous
 62
     7
 48
25.4
100
AcDbLine
 10
159.9204494084
 20
260.9791812112
 30
0.0
 11
72.0274590819
 21
260.9791812112
 31
0.0
  0
LINE
  5
2E7
330
2E0
100
AcDbEntity
  8
Default
  6
Continuous
 62
     7
 48
25.4
100
AcDbLine
 10
159.9204494084
 20
325.7791812112
 30
0.0
 11
72.0274590819
 21
325.7791812112
 31
0.0
  0
LINE
  5
2E8
330
2E0
100
AcDbEntity
  8
Default
  6
Continuous
 62
     7
 48
25.4
100
AcDbLine
 10
74.0274591769
 20
260.9791812112
 30
0.0
 11
74.0274591769
 21
325.779182892
 31
0.0
  0
TEXT
  5
2E9
330
2E0
100
AcDbEntity
  8
Default
  6
Continuous
 62
     7
 48
25.4
100
AcDbText
 10
73.0274591769
 20
292.3642316321
 30
0.0
 40
4.0
  1
108
 50
90.0
  7
SEACAD_arial_ttf
 11
69.0274591769
 21
292.3642316321
 31
0.0
100
AcDbText
 73
     3
  0
TEXT
  5
2EA
330
2E0
100
AcDbEntity
  8
Default
  6
Continuous
 62
     7
 48
25.4
100
AcDbText
 10
73.0274591769
 20
285.0028281233
 30
0.0
 40
4.0
  1
O
 50
90.0
  7
SEACAD_semeca1_ttf
 11
69.0274591769
 21
285.0028281233
 31
0.0
100
AcDbText
 73
     3
  0
ENDBLK
  5
2EC
330
2E0
100
AcDbEntity
  8
0
100
AcDbBlockEnd
  0
BLOCK
  5
2F6
330
2ED
100
AcDbEntity
  8
0
100
AcDbBlockBegin
  2
GDimGGroup11
 70
     0
 71
     0
 10
0.0
 20
0.0
 30
0.0
  3
GDimGGroup11
  1

  0
HATCH
  5
2EF
330
2ED
100
AcDbEntity
  8
Default
  6
Continuous
 62
     7
 48
25.4
100
AcDbHatch
 10
0.0
 20
0.0
 30
0.0
210
0.0
220
0.0
230
1.0
  2
SOLID
 70
     1
 71
     0
 91
        1
 92
        1
 93
        3
 72
     1
 10
167.6046963014963
 20
282.379181401167
 11
166.2713629048331
 21
282.379181401167
 72
     1
 10
166.2713629048331
 20
282.379181401167
 11
166.9380296031647
 21
278.3791812111772
 72
     1
 10
166.9380296031647
 20
278.3791812111772
 11
167.6046963014963
 21
282.379181401167
 97
        0
 75
     0
 76
     1
 98
        0
  0
LWPOLYLINE
  5
2F0
330
2ED
100
AcDbEntity
  8
Default
  6
Continuous
 62
     7
 48
25.4
370
    20
100
AcDbPolyline
 90
        4
 70
     1
 43
0.0
 10
167.6046963015
 20
282.3791814012
 10
166.9380296032
 20
278.3791812112
 10
166.2713629048
 20
282.3791814012
 10
167.6046963015
 20
282.3791814012
  0
HATCH
  5
2F1
330
2ED
100
AcDbEntity
  8
Default
  6
Continuous
 62
     7
 48
25.4
100
AcDbHatch
 10
0.0
 20
0.0
 30
0.0
210
0.0
220
0.0
230
1.0
  2
SOLID
 70
     1
 71
     0
 91
        1
 92
        1
 93
        3
 72
     1
 10
167.6046963014963
 20
304.3791840759254
 11
166.9380296031647
 21
308.3791842659152
 72
     1
 10
166.9380296031647
 20
308.3791842659152
 11
166.2713629048331
 21
304.3791840759254
 72
     1
 10
166.2713629048331
 20
304.3791840759254
 11
167.6046963014963
 21
304.3791840759254
 97
        0
 75
     0
 76
     1
 98
        0
  0
LWPOLYLINE
  5
2F2
330
2ED
100
AcDbEntity
  8
Default
  6
Continuous
 62
     7
 48
25.4
370
    20
100
AcDbPolyline
 90
        4
 70
     1
 43
0.0
 10
167.6046963015
 20
304.3791840759
 10
166.9380296032
 20
308.3791842659
 10
166.2713629048
 20
304.3791840759
 10
167.6046963015
 20
304.3791840759
  0
LINE
  5
2F3
330
2ED
100
AcDbEntity
  8
Default
  6
Continuous
 62
     7
 48
25.4
100
AcDbLine
 10
166.9380296032
 20
278.3791812112
 30
0.0
 11
166.9380296032
 21
308.3791842659
 31
0.0
  0
TEXT
  5
2F4
330
2ED
100
AcDbEntity
  8
Default
  6
Continuous
 62
     7
 48
25.4
100
AcDbText
 10
165.9380296032
 20
293.9294497103
 30
0.0
 40
4.0
  1
50
 50
90.0
  7
SEACAD_arial_ttf
 11
161.9380296032
 21
293.9294497103
 31
0.0
100
AcDbText
 73
     3
  0
TEXT
  5
2F5
330
2ED
100
AcDbEntity
  8
Default
  6
Continuous
 62
     7
 48
25.4
100
AcDbText
 10
165.9380296032
 20
286.5680462016
 30
0.0
 40
4.0
  1
O
 50
90.0
  7
SEACAD_semeca1_ttf
 11
161.9380296032
 21
286.5680462016
 31
0.0
100
AcDbText
 73
     3
  0
ENDBLK
  5
2F7
330
2ED
100
AcDbEntity
  8
0
100
AcDbBlockEnd
  0
BLOCK
  5
304
330
2F8
100
AcDbEntity
  8
0
100
AcDbBlockBegin
  2
GDimGGroup12
 70
     0
 71
     0
 10
0.0
 20
0.0
 30
0.0
  3
GDimGGroup12
  1

  0
HATCH
  5
2FA
330
2F8
100
AcDbEntity
  8
Default
  6
Continuous
 62
     7
 48
25.4
100
AcDbHatch
 10
0.0
 20
0.0
 30
0.0
210
0.0
220
0.0
230
1.0
  2
SOLID
 70
     1
 71
     0
 91
        1
 92
        1
 93
        3
 72
     1
 10
54.3801340960911
 20
232.0425102503451
 11
55.04680079442273
 21
228.0425100603553
 72
     1
 10
55.04680079442273
 20
228.0425100603553
 11
55.71346749275436
 21
232.0425102503451
 72
     1
 10
55.71346749275436
 20
232.0425102503451
 11
54.3801340960911
 21
232.0425102503451
 97
        0
 75
     0
 76
     1
 98
        0
  0
LWPOLYLINE
  5
2FB
330
2F8
100
AcDbEntity
  8
Default
  6
Continuous
 62
     7
 48
25.4
370
    20
100
AcDbPolyline
 90
        4
 70
     1
 43
0.0
 10
54.3801340961
 20
232.0425102503
 10
55.0468007944
 20
228.0425100604
 10
55.7134674928
 20
232.0425102503
 10
54.3801340961
 20
232.0425102503
  0
HATCH
  5
2FC
330
2F8
100
AcDbEntity
  8
Default
  6
Continuous
 62
     7
 48
25.4
100
AcDbHatch
 10
0.0
 20
0.0
 30
0.0
210
0.0
220
0.0
230
1.0
  2
SOLID
 70
     1
 71
     0
 91
        1
 92
        1
 93
        3
 72
     1
 10
54.3801340960911
 20
356.0425091551098
 11
55.71346749275436
 21
356.0425091551098
 72
     1
 10
55.71346749275436
 20
356.0425091551098
 11
55.04680079442273
 21
360.0425093450996
 72
     1
 10
55.04680079442273
 20
360.0425093450996
 11
54.3801340960911
 21
356.0425091551098
 97
        0
 75
     0
 76
     1
 98
        0
  0
LWPOLYLINE
  5
2FD
330
2F8
100
AcDbEntity
  8
Default
  6
Continuous
 62
     7
 48
25.4
370
    20
100
AcDbPolyline
 90
        4
 70
     1
 43
0.0
 10
54.3801340961
 20
356.0425091551
 10
55.0468007944
 20
360.0425093451
 10
55.7134674928
 20
356.0425091551
 10
54.3801340961
 20
356.0425091551
  0
LINE
  5
2FE
330
2F8
100
AcDbEntity
  8
Default
  6
Continuous
 62
     7
 48
25.4
100
AcDbLine
 10
140.1204506777
 20
228.0425100604
 30
0.0
 11
53.0468006994
 21
228.0425100604
 31
0.0
  0
LINE
  5
2FF
330
2F8
100
AcDbEntity
  8
Default
  6
Continuous
 62
     7
 48
25.4
100
AcDbLine
 10
140.1204506777
 20
360.0425100604
 30
0.0
 11
53.0468006994
 21
360.0425100604
 31
0.0
  0
LINE
  5
300
330
2F8
100
AcDbEntity
  8
Default
  6
Continuous
 62
     7
 48
25.4
100
AcDbLine
 10
55.0468007944
 20
228.0425100604
 30
0.0
 11
55.0468007944
 21
360.0425093451
 31
0.0
  0
TEXT
  5
301
330
2F8
100
AcDbEntity
  8
Default
  6
Continuous
 62
     7
 48
25.4
100
AcDbText
 10
54.0468007944
 20
288.2623418919
 30
0.0
 40
4.0
  1
220
 50
90.0
  7
SEACAD_arial_ttf
 11
50.0468007944
 21
288.2623418919
 31
0.0
100
AcDbText
 73
     3
  0
TEXT
  5
302
330
2F8
100
AcDbEntity
  8
Default
  6
Continuous
 62
     7
 48
25.4
100
AcDbText
 10
54.0468007944
 20
300.0536462397
 30
0.0
 40
4.0
  1
H6
 50
90.0
  7
SEACAD_arial_ttf
 11
50.0468007944
 21
300.0536462397
 31
0.0
100
AcDbText
 73
     3
  0
TEXT
  5
303
330
2F8
100
AcDbEntity
  8
Default
  6
Continuous
 62
     7
 48
25.4
100
AcDbText
 10
54.0468007944
 20
280.9009383831
 30
0.0
 40
4.0
  1
O
 50
90.0
  7
SEACAD_semeca1_ttf
 11
50.0468007944
 21
280.9009383831
 31
0.0
100
AcDbText
 73
     3
  0
ENDBLK
  5
305
330
2F8
100
AcDbEntity
  8
0
100
AcDbBlockEnd
  0
BLOCK
  5
311
330
306
100
AcDbEntity
  8
0
100
AcDbBlockBegin
  2
GDimGGroup13
 70
     0
 71
     0
 10
0.0
 20
0.0
 30
0.0
  3
GDimGGroup13
  1

  0
HATCH
  5
308
330
306
100
AcDbEntity
  8
Default
  6
Continuous
 62
     7
 48
25.4
100
AcDbHatch
 10
0.0
 20
0.0
 30
0.0
210
0.0
220
0.0
230
1.0
  2
SOLID
 70
     1
 71
     0
 91
        1
 92
        1
 93
        3
 72
     1
 10
33.27437091106683
 20
206.1791833434887
 11
33.94103760939846
 21
202.1791831534989
 72
     1
 10
33.94103760939846
 20
202.1791831534989
 11
34.60770430773009
 21
206.1791833434887
 72
     1
 10
34.60770430773009
 20
206.1791833434887
 11
33.27437091106683
 21
206.1791833434887
 97
        0
 75
     0
 76
     1
 98
        0
  0
LWPOLYLINE
  5
309
330
306
100
AcDbEntity
  8
Default
  6
Continuous
 62
     7
 48
25.4
370
    20
100
AcDbPolyline
 90
        4
 70
     1
 43
0.0
 10
33.2743709111
 20
206.1791833435
 10
33.9410376094
 20
202.1791831535
 10
34.6077043077
 20
206.1791833435
 10
33.2743709111
 20
206.1791833435
  0
HATCH
  5
30A
330
306
100
AcDbEntity
  8
Default
  6
Continuous
 62
     7
 48
25.4
100
AcDbHatch
 10
0.0
 20
0.0
 30
0.0
210
0.0
220
0.0
230
1.0
  2
SOLID
 70
     1
 71
     0
 91
        1
 92
        1
 93
        3
 72
     1
 10
33.27437091106683
 20
380.5791860391087
 11
34.60770430773009
 21
380.5791860391087
 72
     1
 10
34.60770430773009
 20
380.5791860391087
 11
33.94103760939846
 21
384.5791862290985
 72
     1
 10
33.94103760939846
 20
384.5791862290985
 11
33.27437091106683
 21
380.5791860391087
 97
        0
 75
     0
 76
     1
 98
        0
  0
LWPOLYLINE
  5
30B
330
306
100
AcDbEntity
  8
Default
  6
Continuous
 62
     7
 48
25.4
370
    20
100
AcDbPolyline
 90
        4
 70
     1
 43
0.0
 10
33.2743709111
 20
380.5791860391
 10
33.9410376094
 20
384.5791862291
 10
34.6077043077
 20
380.5791860391
 10
33.2743709111
 20
380.5791860391
  0
LINE
  5
30C
330
306
100
AcDbEntity
  8
Default
  6
Continuous
 62
     7
 48
25.4
100
AcDbLine
 10
151.8204506777
 20
202.1791831535
 30
0.0
 11
31.9410375144
 21
202.1791831535
 31
0.0
  0
LINE
  5
30D
330
306
100
AcDbEntity
  8
Default
  6
Continuous
 62
     7
 48
25.4
100
AcDbLine
 10
151.8204506777
 20
384.5791831535
 30
0.0
 11
31.9410375144
 21
384.5791831535
 31
0.0
  0
LINE
  5
30E
330
306
100
AcDbEntity
  8
Default
  6
Continuous
 62
     7
 48
25.4
100
AcDbLine
 10
33.9410376094
 20
202.1791831535
 30
0.0
 11
33.9410376094
 21
384.5791862291
 31
0.0
  0
TEXT
  5
30F
330
306
100
AcDbEntity
  8
Default
  6
Continuous
 62
     7
 48
25.4
100
AcDbText
 10
32.9410376094
 20
292.3642342718
 30
0.0
 40
4.0
  1
304
 50
90.0
  7
SEACAD_arial_ttf
 11
28.9410376094
 21
292.3642342718
 31
0.0
100
AcDbText
 73
     3
  0
TEXT
  5
310
330
306
100
AcDbEntity
  8
Default
  6
Continuous
 62
     7
 48
25.4
100
AcDbText
 10
32.9410376094
 20
285.002830763
 30
0.0
 40
4.0
  1
O
 50
90.0
  7
SEACAD_semeca1_ttf
 11
28.9410376094
 21
285.002830763
 31
0.0
100
AcDbText
 73
     3
  0
ENDBLK
  5
312
330
306
100
AcDbEntity
  8
0
100
AcDbBlockEnd
  0
BLOCK
  5
31D
330
313
100
AcDbEntity
  8
0
100
AcDbBlockBegin
  2
GDimGGroup14
 70
     0
 71
     0
 10
0.0
 20
0.0
 30
0.0
  3
GDimGGroup14
  1

  0
HATCH
  5
315
330
313
100
AcDbEntity
  8
Default
  6
Continuous
 62
     7
 48
25.4
100
AcDbHatch
 10
0.0
 20
0.0
 30
0.0
210
0.0
220
0.0
230
1.0
  2
SOLID
 70
     1
 71
     0
 91
        1
 92
        1
 93
        3
 72
     1
 10
155.0204492184036
 20
305.4098226819025
 11
155.0204492184036
 21
304.0764892852392
 72
     1
 10
155.0204492184036
 20
304.0764892852392
 11
159.0204494083934
 21
304.7431559835709
 72
     1
 10
159.0204494083934
 20
304.7431559835709
 11
155.0204492184036
 21
305.4098226819025
 97
        0
 75
     0
 76
     1
 98
        0
  0
LWPOLYLINE
  5
316
330
313
100
AcDbEntity
  8
Default
  6
Continuous
 62
     7
 48
25.4
370
    20
100
AcDbPolyline
 90
        4
 70
     1
 43
0.0
 10
155.0204492184
 20
305.4098226819
 10
159.0204494084
 20
304.7431559836
 10
155.0204492184
 20
304.0764892852
 10
155.0204492184
 20
305.4098226819
  0
HATCH
  5
317
330
313
100
AcDbEntity
  8
Default
  6
Continuous
 62
     7
 48
25.4
100
AcDbHatch
 10
0.0
 20
0.0
 30
0.0
210
0.0
220
0.0
230
1.0
  2
SOLID
 70
     1
 71
     0
 91
        1
 92
        1
 93
        3
 72
     1
 10
143.2204508676828
 20
305.4098226819025
 11
139.220450677693
 21
304.7431559835709
 72
     1
 10
139.220450677693
 20
304.7431559835709
 11
143.2204508676828
 21
304.0764892852392
 72
     1
 10
143.2204508676828
 20
304.0764892852392
 11
143.2204508676828
 21
305.4098226819025
 97
        0
 75
     0
 76
     1
 98
        0
  0
LWPOLYLINE
  5
318
330
313
100
AcDbEntity
  8
Default
  6
Continuous
 62
     7
 48
25.4
370
    20
100
AcDbPolyline
 90
        4
 70
     1
 43
0.0
 10
143.2204508677
 20
305.4098226819
 10
139.2204506777
 20
304.7431559836
 10
143.2204508677
 20
304.0764892852
 10
143.2204508677
 20
305.4098226819
  0
LINE
  5
319
330
313
100
AcDbEntity
  8
Default
  6
Continuous
 62
     7
 48
25.4
100
AcDbLine
 10
159.0204494084
 20
304.7431559836
 30
0.0
 11
113.2390717054
 21
304.7431559836
 31
0.0
  0
TEXT
  5
31A
330
313
100
AcDbEntity
  8
Default
  6
Continuous
 62
     7
 48
25.4
100
AcDbText
 10
129.3521144806
 20
311.7431559836
 30
0.0
 40
4.0
  1
33
  7
SEACAD_arial_ttf
 11
129.3521144806
 21
315.7431559836
 31
0.0
100
AcDbText
 73
     3
  0
TEXT
  5
31B
330
313
100
AcDbEntity
  8
Default
  6
Continuous
 62
     7
 48
25.4
100
AcDbText
 10
114.6390710024
 20
311.7431559836
 30
0.0
 40
4.0
  1
MAX
  7
SEACAD_arial_ttf
 11
114.6390710024
 21
315.7431559836
 31
0.0
100
AcDbText
 73
     3
  0
TEXT
  5
31C
330
313
100
AcDbEntity
  8
Default
  6
Continuous
 62
     7
 48
25.4
100
AcDbText
 10
114.6390710024
 20
305.7431559836
 30
0.0
 40
4.0
  1
MIN 10
  7
SEACAD_arial_ttf
 11
114.6390710024
 21
309.7431559836
 31
0.0
100
AcDbText
 73
     3
  0
ENDBLK
  5
31E
330
313
100
AcDbEntity
  8
0
100
AcDbBlockEnd
  0
BLOCK
  5
328
330
31F
100
AcDbEntity
  8
0
100
AcDbBlockBegin
  2
GDimGGroup15
 70
     0
 71
     0
 10
0.0
 20
0.0
 30
0.0
  3
GDimGGroup15
  1

  0
HATCH
  5
321
330
31F
100
AcDbEntity
  8
Default
  6
Continuous
 62
     7
 48
25.4
100
AcDbHatch
 10
0.0
 20
0.0
 30
0.0
210
0.0
220
0.0
230
1.0
  2
SOLID
 70
     1
 71
     0
 91
        1
 92
        1
 93
        3
 72
     1
 10
163.0204495983832
 20
274.0306586405721
 11
163.0204495983832
 21
275.3639920372354
 72
     1
 10
163.0204495983832
 20
275.3639920372354
 11
159.0204494083934
 21
274.6973253389037
 72
     1
 10
159.0204494083934
 20
274.6973253389037
 11
163.0204495983832
 21
274.0306586405721
 97
        0
 75
     0
 76
     1
 98
        0
  0
LWPOLYLINE
  5
322
330
31F
100
AcDbEntity
  8
Default
  6
Continuous
 62
     7
 48
25.4
370
    20
100
AcDbPolyline
 90
        4
 70
     1
 43
0.0
 10
163.0204495984
 20
274.0306586406
 10
159.0204494084
 20
274.6973253389
 10
163.0204495984
 20
275.3639920372
 10
163.0204495984
 20
274.0306586406
  0
HATCH
  5
323
330
31F
100
AcDbEntity
  8
Default
  6
Continuous
 62
     7
 48
25.4
100
AcDbHatch
 10
0.0
 20
0.0
 30
0.0
210
0.0
220
0.0
230
1.0
  2
SOLID
 70
     1
 71
     0
 91
        1
 92
        1
 93
        3
 72
     1
 10
171.8204486193769
 20
274.0306586405721
 11
175.8204488093667
 21
274.6973253389037
 72
     1
 10
175.8204488093667
 20
274.6973253389037
 11
171.8204486193769
 21
275.3639920372354
 72
     1
 10
171.8204486193769
 20
275.3639920372354
 11
171.8204486193769
 21
274.0306586405721
 97
        0
 75
     0
 76
     1
 98
        0
  0
LWPOLYLINE
  5
324
330
31F
100
AcDbEntity
  8
Default
  6
Continuous
 62
     7
 48
25.4
370
    20
100
AcDbPolyline
 90
        4
 70
     1
 43
0.0
 10
171.8204486194
 20
274.0306586406
 10
175.8204488094
 20
274.6973253389
 10
171.8204486194
 20
275.3639920372
 10
171.8204486194
 20
274.0306586406
  0
LINE
  5
325
330
31F
100
AcDbEntity
  8
Default
  6
Continuous
 62
     7
 48
25.4
100
AcDbLine
 10
159.0204494084
 20
293.3791812112
 30
0.0
 11
159.0204494084
 21
272.6973252439
 31
0.0
  0
LINE
  5
326
330
31F
100
AcDbEntity
  8
Default
  6
Continuous
 62
     7
 48
25.4
100
AcDbLine
 10
127.7042994286
 20
274.6973253389
 30
0.0
 11
175.8204488094
 21
274.6973253389
 31
0.0
  0
TEXT
  5
327
330
31F
100
AcDbEntity
  8
Default
  6
Continuous
 62
     7
 48
25.4
100
AcDbText
 10
129.1042988567
 20
275.6973253389
 30
0.0
 40
4.0
  1
28
  7
SEACAD_arial_ttf
 11
129.1042988567
 21
279.6973253389
 31
0.0
100
AcDbText
 73
     3
  0
ENDBLK
  5
329
330
31F
100
AcDbEntity
  8
0
100
AcDbBlockEnd
  0
BLOCK
  5
334
330
32A
100
AcDbEntity
  8
0
100
AcDbBlockBegin
  2
GDimGGroup16
 70
     0
 71
     0
 10
0.0
 20
0.0
 30
0.0
  3
GDimGGroup16
  1

  0
HATCH
  5
32C
330
32A
100
AcDbEntity
  8
Default
  6
Continuous
 62
     7
 48
25.4
100
AcDbHatch
 10
0.0
 20
0.0
 30
0.0
210
0.0
220
0.0
230
1.0
  2
SOLID
 70
     1
 71
     0
 91
        1
 92
        1
 93
        3
 72
     1
 10
316.5343455573868
 20
322.5791833434887
 11
315.2010121607235
 21
322.5791833434887
 72
     1
 10
315.2010121607235
 20
322.5791833434887
 11
315.8676788590552
 21
318.5791831534989
 72
     1
 10
315.8676788590552
 20
318.5791831534989
 11
316.5343455573868
 21
322.5791833434887
 97
        0
 75
     0
 76
     1
 98
        0
  0
LWPOLYLINE
  5
32D
330
32A
100
AcDbEntity
  8
Default
  6
Continuous
 62
     7
 48
25.4
370
    20
100
AcDbPolyline
 90
        4
 70
     1
 43
0.0
 10
316.5343455574
 20
322.5791833435
 10
315.8676788591
 20
318.5791831535
 10
315.2010121607
 20
322.5791833435
 10
316.5343455574
 20
322.5791833435
  0
HATCH
  5
32E
330
32A
100
AcDbEntity
  8
Default
  6
Continuous
 62
     7
 48
25.4
100
AcDbHatch
 10
0.0
 20
0.0
 30
0.0
210
0.0
220
0.0
230
1.0
  2
SOLID
 70
     1
 71
     0
 91
        1
 92
        1
 93
        3
 72
     1
 10
316.5343455573868
 20
381.1791853119321
 11
315.8676788590552
 21
385.1791855019219
 72
     1
 10
315.8676788590552
 20
385.1791855019219
 11
315.2010121607235
 21
381.1791853119321
 72
     1
 10
315.2010121607235
 20
381.1791853119321
 11
316.5343455573868
 21
381.1791853119321
 97
        0
 75
     0
 76
     1
 98
        0
  0
LWPOLYLINE
  5
32F
330
32A
100
AcDbEntity
  8
Default
  6
Continuous
 62
     7
 48
25.4
370
    20
100
AcDbPolyline
 90
        4
 70
     1
 43
0.0
 10
316.5343455574
 20
381.1791853119
 10
315.8676788591
 20
385.1791855019
 10
315.2010121607
 20
381.1791853119
 10
316.5343455574
 20
381.1791853119
  0
LINE
  5
330
330
32A
100
AcDbEntity
  8
Default
  6
Continuous
 62
     7
 48
25.4
100
AcDbLine
 10
247.2204506777
 20
318.5791831535
 30
0.0
 11
317.8676789541
 21
318.5791831535
 31
0.0
  0
LINE
  5
331
330
32A
100
AcDbEntity
  8
Default
  6
Continuous
 62
     7
 48
25.4
100
AcDbLine
 10
247.2204506777
 20
385.1791831535
 30
0.0
 11
317.8676789541
 21
385.1791831535
 31
0.0
  0
LINE
  5
332
330
32A
100
AcDbEntity
  8
Default
  6
Continuous
 62
     7
 48
25.4
100
AcDbLine
 10
315.8676788591
 20
318.5791831535
 30
0.0
 11
315.8676788591
 21
385.1791855019
 31
0.0
  0
TEXT
  5
333
330
32A
100
AcDbEntity
  8
Default
  6
Continuous
 62
     7
 48
25.4
100
AcDbText
 10
314.8676788591
 20
347.1835321538
 30
0.0
 40
4.0
  1
111
 50
90.0
  7
SEACAD_arial_ttf
 11
310.8676788591
 21
347.1835321538
 31
0.0
100
AcDbText
 73
     3
  0
ENDBLK
  5
335
330
32A
100
AcDbEntity
  8
0
100
AcDbBlockEnd
  0
BLOCK
  5
340
330
336
100
AcDbEntity
  8
0
100
AcDbBlockBegin
  2
GDimGGroup17
 70
     0
 71
     0
 10
0.0
 20
0.0
 30
0.0
  3
GDimGGroup17
  1

  0
HATCH
  5
338
330
336
100
AcDbEntity
  8
Default
  6
Continuous
 62
     7
 48
25.4
100
AcDbHatch
 10
0.0
 20
0.0
 30
0.0
210
0.0
220
0.0
230
1.0
  2
SOLID
 70
     1
 71
     0
 91
        1
 92
        1
 93
        3
 72
     1
 10
220.6204508676828
 20
401.7797030131655
 11
216.620450677693
 21
401.1130363148338
 72
     1
 10
216.620450677693
 20
401.1130363148338
 11
220.6204508676828
 21
400.4463696165022
 72
     1
 10
220.6204508676828
 20
400.4463696165022
 11
220.6204508676828
 21
401.7797030131655
 97
        0
 75
     0
 76
     1
 98
        0
  0
LWPOLYLINE
  5
339
330
336
100
AcDbEntity
  8
Default
  6
Continuous
 62
     7
 48
25.4
370
    20
100
AcDbPolyline
 90
        4
 70
     1
 43
0.0
 10
220.6204508677
 20
401.7797030132
 10
216.6204506777
 20
401.1130363148
 10
220.6204508677
 20
400.4463696165
 10
220.6204508677
 20
401.7797030132
  0
HATCH
  5
33A
330
336
100
AcDbEntity
  8
Default
  6
Continuous
 62
     7
 48
25.4
100
AcDbHatch
 10
0.0
 20
0.0
 30
0.0
210
0.0
220
0.0
230
1.0
  2
SOLID
 70
     1
 71
     0
 91
        1
 92
        1
 93
        3
 72
     1
 10
243.2204506605567
 20
401.7797030131655
 11
243.2204506605567
 21
400.4463696165022
 72
     1
 10
243.2204506605567
 20
400.4463696165022
 11
247.2204508505465
 21
401.1130363148338
 72
     1
 10
247.2204508505465
 20
401.1130363148338
 11
243.2204506605567
 21
401.7797030131655
 97
        0
 75
     0
 76
     1
 98
        0
  0
LWPOLYLINE
  5
33B
330
336
100
AcDbEntity
  8
Default
  6
Continuous
 62
     7
 48
25.4
370
    20
100
AcDbPolyline
 90
        4
 70
     1
 43
0.0
 10
243.2204506606
 20
401.7797030132
 10
247.2204508505
 20
401.1130363148
 10
243.2204506606
 20
400.4463696165
 10
243.2204506606
 20
401.7797030132
  0
LINE
  5
33C
330
336
100
AcDbEntity
  8
Default
  6
Continuous
 62
     7
 48
25.4
100
AcDbLine
 10
216.6204506777
 20
383.9791819852
 30
0.0
 11
216.6204506777
 21
403.1130364098
 31
0.0
  0
LINE
  5
33D
330
336
100
AcDbEntity
  8
Default
  6
Continuous
 62
     7
 48
25.4
100
AcDbLine
 10
247.2204506777
 20
385.1791855019
 30
0.0
 11
247.2204506777
 21
403.1130364098
 31
0.0
  0
LINE
  5
33E
330
336
100
AcDbEntity
  8
Default
  6
Continuous
 62
     7
 48
25.4
100
AcDbLine
 10
216.6204506777
 20
401.1130363148
 30
0.0
 11
247.2204508505
 21
401.1130363148
 31
0.0
  0
TEXT
  5
33F
330
336
100
AcDbEntity
  8
Default
  6
Continuous
 62
     7
 48
25.4
100
AcDbText
 10
228.7900159815
 20
402.1130363148
 30
0.0
 40
4.0
  1
51
  7
SEACAD_arial_ttf
 11
228.7900159815
 21
406.1130363148
 31
0.0
100
AcDbText
 73
     3
  0
ENDBLK
  5
341
330
336
100
AcDbEntity
  8
0
100
AcDbBlockEnd
  0
BLOCK
  5
34C
330
342
100
AcDbEntity
  8
0
100
AcDbBlockBegin
  2
GDimGGroup18
 70
     0
 71
     0
 10
0.0
 20
0.0
 30
0.0
  3
GDimGGroup18
  1

  0
HATCH
  5
344
330
342
100
AcDbEntity
  8
Default
  6
Continuous
 62
     7
 48
25.4
100
AcDbHatch
 10
0.0
 20
0.0
 30
0.0
210
0.0
220
0.0
230
1.0
  2
SOLID
 70
     1
 71
     0
 91
        1
 92
        1
 93
        3
 72
     1
 10
294.5532328984093
 20
381.1791829635091
 11
293.8865662000777
 21
385.1791831534989
 72
     1
 10
293.8865662000777
 20
385.1791831534989
 11
293.219899501746
 21
381.1791829635091
 72
     1
 10
293.219899501746
 20
381.1791829635091
 11
294.5532328984093
 21
381.1791829635091
 97
        0
 75
     0
 76
     1
 98
        0
  0
LWPOLYLINE
  5
345
330
342
100
AcDbEntity
  8
Default
  6
Continuous
 62
     7
 48
25.4
370
    20
100
AcDbPolyline
 90
        4
 70
     1
 43
0.0
 10
294.5532328984
 20
381.1791829635
 10
293.8865662001
 20
385.1791831535
 10
293.2198995017
 20
381.1791829635
 10
294.5532328984
 20
381.1791829635
  0
HATCH
  5
346
330
342
100
AcDbEntity
  8
Default
  6
Continuous
 62
     7
 48
25.4
100
AcDbHatch
 10
0.0
 20
0.0
 30
0.0
210
0.0
220
0.0
230
1.0
  2
SOLID
 70
     1
 71
     0
 91
        1
 92
        1
 93
        3
 72
     1
 10
294.5532328984093
 20
376.5791833270974
 11
293.219899501746
 21
376.5791833270974
 72
     1
 10
293.219899501746
 20
376.5791833270974
 11
293.8865662000777
 21
372.5791831371076
 72
     1
 10
293.8865662000777
 20
372.5791831371076
 11
294.5532328984093
 21
376.5791833270974
 97
        0
 75
     0
 76
     1
 98
        0
  0
LWPOLYLINE
  5
347
330
342
100
AcDbEntity
  8
Default
  6
Continuous
 62
     7
 48
25.4
370
    20
100
AcDbPolyline
 90
        4
 70
     1
 43
0.0
 10
294.5532328984
 20
376.5791833271
 10
293.8865662001
 20
372.5791831371
 10
293.2198995017
 20
376.5791833271
 10
294.5532328984
 20
376.5791833271
  0
LINE
  5
348
330
342
100
AcDbEntity
  8
Default
  6
Continuous
 62
     7
 48
25.4
100
AcDbLine
 10
247.2204506777
 20
385.1791831535
 30
0.0
 11
295.8865662951
 21
385.1791831535
 31
0.0
  0
LINE
  5
349
330
342
100
AcDbEntity
  8
Default
  6
Continuous
 62
     7
 48
25.4
100
AcDbLine
 10
250.5695459851
 20
372.5791831535
 30
0.0
 11
295.8865662951
 21
372.5791831535
 31
0.0
  0
LINE
  5
34A
330
342
100
AcDbEntity
  8
Default
  6
Continuous
 62
     7
 48
25.4
100
AcDbLine
 10
293.8865662001
 20
385.1791831535
 30
0.0
 11
293.8865662001
 21
372.5791831371
 31
0.0
  0
TEXT
  5
34B
330
342
100
AcDbEntity
  8
Default
  6
Continuous
 62
     7
 48
25.4
100
AcDbText
 10
292.8865662001
 20
375.7487483627
 30
0.0
 40
4.0
  1
21
 50
90.0
  7
SEACAD_arial_ttf
 11
288.8865662001
 21
375.7487483627
 31
0.0
100
AcDbText
 73
     3
  0
ENDBLK
  5
34D
330
342
100
AcDbEntity
  8
0
100
AcDbBlockEnd
  0
BLOCK
  5
358
330
34E
100
AcDbEntity
  8
0
100
AcDbBlockBegin
  2
GDimGGroup19
 70
     0
 71
     0
 10
0.0
 20
0.0
 30
0.0
  3
GDimGGroup19
  1

  0
HATCH
  5
350
330
34E
100
AcDbEntity
  8
Default
  6
Continuous
 62
     7
 48
25.4
100
AcDbHatch
 10
0.0
 20
0.0
 30
0.0
210
0.0
220
0.0
230
1.0
  2
SOLID
 70
     1
 71
     0
 91
        1
 92
        1
 93
        3
 72
     1
 10
294.5532326228534
 20
368.5791829635091
 11
293.8865659245218
 21
372.5791831534989
 72
     1
 10
293.8865659245218
 20
372.5791831534989
 11
293.2198992261901
 21
368.5791829635091
 72
     1
 10
293.2198992261901
 20
368.5791829635091
 11
294.5532326228534
 21
368.5791829635091
 97
        0
 75
     0
 76
     1
 98
        0
  0
LWPOLYLINE
  5
351
330
34E
100
AcDbEntity
  8
Default
  6
Continuous
 62
     7
 48
25.4
370
    20
100
AcDbPolyline
 90
        4
 70
     1
 43
0.0
 10
294.5532326229
 20
368.5791829635
 10
293.8865659245
 20
372.5791831535
 10
293.2198992262
 20
368.5791829635
 10
294.5532326229
 20
368.5791829635
  0
HATCH
  5
352
330
34E
100
AcDbEntity
  8
Default
  6
Continuous
 62
     7
 48
25.4
100
AcDbHatch
 10
0.0
 20
0.0
 30
0.0
210
0.0
220
0.0
230
1.0
  2
SOLID
 70
     1
 71
     0
 91
        1
 92
        1
 93
        3
 72
     1
 10
294.5532326228534
 20
358.5791841183491
 11
293.2198992261901
 21
358.5791841183491
 72
     1
 10
293.2198992261901
 20
358.5791841183491
 11
293.8865659245218
 21
354.5791839283593
 72
     1
 10
293.8865659245218
 20
354.5791839283593
 11
294.5532326228534
 21
358.5791841183491
 97
        0
 75
     0
 76
     1
 98
        0
  0
LWPOLYLINE
  5
353
330
34E
100
AcDbEntity
  8
Default
  6
Continuous
 62
     7
 48
25.4
370
    20
100
AcDbPolyline
 90
        4
 70
     1
 43
0.0
 10
294.5532326229
 20
358.5791841183
 10
293.8865659245
 20
354.5791839284
 10
293.2198992262
 20
358.5791841183
 10
294.5532326229
 20
358.5791841183
  0
LINE
  5
354
330
34E
100
AcDbEntity
  8
Default
  6
Continuous
 62
     7
 48
25.4
100
AcDbLine
 10
250.5695459851
 20
372.5791831535
 30
0.0
 11
295.8865660195
 21
372.5791831535
 31
0.0
  0
LINE
  5
355
330
34E
100
AcDbEntity
  8
Default
  6
Continuous
 62
     7
 48
25.4
100
AcDbLine
 10
250.5695459851
 20
354.5791831535
 30
0.0
 11
295.8865660195
 21
354.5791831535
 31
0.0
  0
LINE
  5
356
330
34E
100
AcDbEntity
  8
Default
  6
Continuous
 62
     7
 48
25.4
100
AcDbLine
 10
293.8865659245
 20
372.5791831535
 30
0.0
 11
293.8865659245
 21
354.5791839284
 31
0.0
  0
TEXT
  5
357
330
34E
100
AcDbEntity
  8
Default
  6
Continuous
 62
     7
 48
25.4
100
AcDbText
 10
292.8865659245
 20
360.4487487583
 30
0.0
 40
4.0
  1
30
 50
90.0
  7
SEACAD_arial_ttf
 11
288.8865659245
 21
360.4487487583
 31
0.0
100
AcDbText
 73
     3
  0
ENDBLK
  5
359
330
34E
100
AcDbEntity
  8
0
100
AcDbBlockEnd
  0
BLOCK
  5
366
330
35A
100
AcDbEntity
  8
0
100
AcDbBlockBegin
  2
GDimGGroup20
 70
     0
 71
     0
 10
0.0
 20
0.0
 30
0.0
  3
GDimGGroup20
  1

  0
HATCH
  5
35C
330
35A
100
AcDbEntity
  8
Default
  6
Continuous
 62
     7
 48
25.4
100
AcDbHatch
 10
0.0
 20
0.0
 30
0.0
210
0.0
220
0.0
230
1.0
  2
SOLID
 70
     1
 71
     0
 91
        1
 92
        1
 93
        3
 72
     1
 10
294.5532333084276
 20
297.3791833434887
 11
293.2198999117643
 21
297.3791833434887
 72
     1
 10
293.2198999117643
 20
297.3791833434887
 11
293.8865666100959
 21
293.3791831534988
 72
     1
 10
293.8865666100959
 20
293.3791831534988
 11
294.5532333084276
 21
297.3791833434887
 97
        0
 75
     0
 76
     1
 98
        0
  0
LWPOLYLINE
  5
35D
330
35A
100
AcDbEntity
  8
Default
  6
Continuous
 62
     7
 48
25.4
370
    20
100
AcDbPolyline
 90
        4
 70
     1
 43
0.0
 10
294.5532333084
 20
297.3791833435
 10
293.8865666101
 20
293.3791831535
 10
293.2198999118
 20
297.3791833435
 10
294.5532333084
 20
297.3791833435
  0
HATCH
  5
35E
330
35A
100
AcDbEntity
  8
Default
  6
Continuous
 62
     7
 48
25.4
100
AcDbHatch
 10
0.0
 20
0.0
 30
0.0
210
0.0
220
0.0
230
1.0
  2
SOLID
 70
     1
 71
     0
 91
        1
 92
        1
 93
        3
 72
     1
 10
294.5532333084276
 20
326.1591826964802
 11
293.8865666100959
 21
330.15918288647
 72
     1
 10
293.8865666100959
 20
330.15918288647
 11
293.2198999117643
 21
326.1591826964802
 72
     1
 10
293.2198999117643
 20
326.1591826964802
 11
294.5532333084276
 21
326.1591826964802
 97
        0
 75
     0
 76
     1
 98
        0
  0
LWPOLYLINE
  5
35F
330
35A
100
AcDbEntity
  8
Default
  6
Continuous
 62
     7
 48
25.4
370
    20
100
AcDbPolyline
 90
        4
 70
     1
 43
0.0
 10
294.5532333084
 20
326.1591826965
 10
293.8865666101
 20
330.1591828865
 10
293.2198999118
 20
326.1591826965
 10
294.5532333084
 20
326.1591826965
  0
LINE
  5
360
330
35A
100
AcDbEntity
  8
Default
  6
Continuous
 62
     7
 48
25.4
100
AcDbLine
 10
249.2908035228
 20
293.3791831535
 30
0.0
 11
295.8865667051
 21
293.3791831535
 31
0.0
  0
LINE
  5
361
330
35A
100
AcDbEntity
  8
Default
  6
Continuous
 62
     7
 48
25.4
100
AcDbLine
 10
216.6204507011
 20
330.1591831535
 30
0.0
 11
295.8865667051
 21
330.1591831535
 31
0.0
  0
LINE
  5
362
330
35A
100
AcDbEntity
  8
Default
  6
Continuous
 62
     7
 48
25.4
100
AcDbLine
 10
293.8865666101
 20
263.1738625866
 30
0.0
 11
293.8865666101
 21
330.1591828865
 31
0.0
  0
TEXT
  5
363
330
35A
100
AcDbEntity
  8
Default
  6
Continuous
 62
     7
 48
25.4
100
AcDbText
 10
286.8865666101
 20
279.2869054735
 30
0.0
 40
4.0
  1
61.3
 50
90.0
  7
SEACAD_arial_ttf
 11
282.8865666101
 21
279.2869054735
 31
0.0
100
AcDbText
 73
     3
  0
TEXT
  5
364
330
35A
100
AcDbEntity
  8
Default
  6
Continuous
 62
     7
 48
25.4
100
AcDbText
 10
286.8865666101
 20
264.5738619952
 30
0.0
 40
4.0
  1
MAX
 50
90.0
  7
SEACAD_arial_ttf
 11
282.8865666101
 21
264.5738619952
 31
0.0
100
AcDbText
 73
     3
  0
TEXT
  5
365
330
35A
100
AcDbEntity
  8
Default
  6
Continuous
 62
     7
 48
25.4
100
AcDbText
 10
292.8865666101
 20
264.5738619952
 30
0.0
 40
4.0
  1
MIN 56
 50
90.0
  7
SEACAD_arial_ttf
 11
288.8865666101
 21
264.5738619952
 31
0.0
100
AcDbText
 73
     3
  0
ENDBLK
  5
367
330
35A
100
AcDbEntity
  8
0
100
AcDbBlockEnd
  0
BLOCK
  5
372
330
368
100
AcDbEntity
  8
0
100
AcDbBlockBegin
  2
GDimGGroup21
 70
     0
 71
     0
 10
0.0
 20
0.0
 30
0.0
  3
GDimGGroup21
  1

  0
HATCH
  5
36A
330
368
100
AcDbEntity
  8
Default
  6
Continuous
 62
     7
 48
25.4
100
AcDbHatch
 10
0.0
 20
0.0
 30
0.0
210
0.0
220
0.0
230
1.0
  2
SOLID
 70
     1
 71
     0
 91
        1
 92
        1
 93
        3
 72
     1
 10
220.6245095679241
 20
213.5472863729449
 11
220.6245095679241
 21
214.8806197696082
 72
     1
 10
220.6245095679241
 20
214.8806197696082
 11
216.6245093779343
 21
214.2139530712766
 72
     1
 10
216.6245093779343
 20
214.2139530712766
 11
220.6245095679241
 21
213.5472863729449
 97
        0
 75
     0
 76
     1
 98
        0
  0
LWPOLYLINE
  5
36B
330
368
100
AcDbEntity
  8
Default
  6
Continuous
 62
     7
 48
25.4
370
    20
100
AcDbPolyline
 90
        4
 70
     1
 43
0.0
 10
220.6245095679
 20
213.5472863729
 10
216.6245093779
 20
214.2139530713
 10
220.6245095679
 20
214.8806197696
 10
220.6245095679
 20
213.5472863729
  0
HATCH
  5
36C
330
368
100
AcDbEntity
  8
Default
  6
Continuous
 62
     7
 48
25.4
100
AcDbHatch
 10
0.0
 20
0.0
 30
0.0
210
0.0
220
0.0
230
1.0
  2
SOLID
 70
     1
 71
     0
 91
        1
 92
        1
 93
        3
 72
     1
 10
202.4245091879445
 20
213.5472863729449
 11
206.4245093779343
 21
214.2139530712766
 72
     1
 10
206.4245093779343
 20
214.2139530712766
 11
202.4245091879445
 21
214.8806197696082
 72
     1
 10
202.4245091879445
 20
214.8806197696082
 11
202.4245091879445
 21
213.5472863729449
 97
        0
 75
     0
 76
     1
 98
        0
  0
LWPOLYLINE
  5
36D
330
368
100
AcDbEntity
  8
Default
  6
Continuous
 62
     7
 48
25.4
370
    20
100
AcDbPolyline
 90
        4
 70
     1
 43
0.0
 10
202.4245091879
 20
213.5472863729
 10
206.4245093779
 20
214.2139530713
 10
202.4245091879
 20
214.8806197696
 10
202.4245091879
 20
213.5472863729
  0
LINE
  5
36E
330
368
100
AcDbEntity
  8
Default
  6
Continuous
 62
     7
 48
25.4
100
AcDbLine
 10
216.6245093779
 20
234.4635135466
 30
0.0
 11
216.6245093779
 21
212.2139529763
 31
0.0
  0
LINE
  5
36F
330
368
100
AcDbEntity
  8
Default
  6
Continuous
 62
     7
 48
25.4
100
AcDbLine
 10
206.4245093779
 20
234.4635135466
 30
0.0
 11
206.4245093779
 21
212.2139529763
 31
0.0
  0
LINE
  5
370
330
368
100
AcDbEntity
  8
Default
  6
Continuous
 62
     7
 48
25.4
100
AcDbLine
 10
230.8646243276
 20
214.2139530713
 30
0.0
 11
198.4245086299
 21
214.2139530713
 31
0.0
  0
TEXT
  5
371
330
368
100
AcDbEntity
  8
Default
  6
Continuous
 62
     7
 48
25.4
100
AcDbText
 10
223.2037548685
 20
215.2139530713
 30
0.0
 40
4.0
  1
17
  7
SEACAD_arial_ttf
 11
223.2037548685
 21
219.2139530713
 31
0.0
100
AcDbText
 73
     3
  0
ENDBLK
  5
373
330
368
100
AcDbEntity
  8
0
100
AcDbBlockEnd
  0
BLOCK
  5
380
330
374
100
AcDbEntity
  8
0
100
AcDbBlockBegin
  2
GDimGGroup22
 70
     0
 71
     0
 10
0.0
 20
0.0
 30
0.0
  3
GDimGGroup22
  1

  0
HATCH
  5
376
330
374
100
AcDbEntity
  8
Default
  6
Continuous
 62
     7
 48
25.4
100
AcDbHatch
 10
0.0
 20
0.0
 30
0.0
210
0.0
220
0.0
230
1.0
  2
SOLID
 70
     1
 71
     0
 91
        1
 92
        1
 93
        3
 72
     1
 10
277.6910073759101
 20
334.1591833434887
 11
276.3576739792468
 21
334.1591833434887
 72
     1
 10
276.3576739792468
 20
334.1591833434887
 11
277.0243406775784
 21
330.1591831534989
 72
     1
 10
277.0243406775784
 20
330.1591831534989
 11
277.6910073759101
 21
334.1591833434887
 97
        0
 75
     0
 76
     1
 98
        0
  0
LWPOLYLINE
  5
377
330
374
100
AcDbEntity
  8
Default
  6
Continuous
 62
     7
 48
25.4
370
    20
100
AcDbPolyline
 90
        4
 70
     1
 43
0.0
 10
277.6910073759
 20
334.1591833435
 10
277.0243406776
 20
330.1591831535
 10
276.3576739792
 20
334.1591833435
 10
277.6910073759
 20
334.1591833435
  0
HATCH
  5
378
330
374
100
AcDbEntity
  8
Default
  6
Continuous
 62
     7
 48
25.4
100
AcDbHatch
 10
0.0
 20
0.0
 30
0.0
210
0.0
220
0.0
230
1.0
  2
SOLID
 70
     1
 71
     0
 91
        1
 92
        1
 93
        3
 72
     1
 10
277.6910073759101
 20
350.5791835762448
 11
277.0243406775784
 21
354.5791837662346
 72
     1
 10
277.0243406775784
 20
354.5791837662346
 11
276.3576739792468
 21
350.5791835762448
 72
     1
 10
276.3576739792468
 20
350.5791835762448
 11
277.6910073759101
 21
350.5791835762448
 97
        0
 75
     0
 76
     1
 98
        0
  0
LWPOLYLINE
  5
379
330
374
100
AcDbEntity
  8
Default
  6
Continuous
 62
     7
 48
25.4
370
    20
100
AcDbPolyline
 90
        4
 70
     1
 43
0.0
 10
277.6910073759
 20
350.5791835762
 10
277.0243406776
 20
354.5791837662
 10
276.3576739792
 20
350.5791835762
 10
277.6910073759
 20
350.5791835762
  0
LINE
  5
37A
330
374
100
AcDbEntity
  8
Default
  6
Continuous
 62
     7
 48
25.4
100
AcDbLine
 10
213.3531690124
 20
330.1591831535
 30
0.0
 11
279.0243407726
 21
330.1591831535
 31
0.0
  0
LINE
  5
37B
330
374
100
AcDbEntity
  8
Default
  6
Continuous
 62
     7
 48
25.4
100
AcDbLine
 10
250.5695459851
 20
354.5791831535
 30
0.0
 11
279.0243407726
 21
354.5791831535
 31
0.0
  0
LINE
  5
37C
330
374
100
AcDbEntity
  8
Default
  6
Continuous
 62
     7
 48
25.4
100
AcDbLine
 10
277.0243406776
 20
261.5100997776
 30
0.0
 11
277.0243406776
 21
354.5791837662
 31
0.0
  0
TEXT
  5
37D
330
374
100
AcDbEntity
  8
Default
  6
Continuous
 62
     7
 48
25.4
100
AcDbText
 10
270.0243406776
 20
277.62314173
 30
0.0
 40
4.0
  1
45.75
 50
90.0
  7
SEACAD_arial_ttf
 11
266.0243406776
 21
277.62314173
 31
0.0
100
AcDbText
 73
     3
  0
TEXT
  5
37E
330
374
100
AcDbEntity
  8
Default
  6
Continuous
 62
     7
 48
25.4
100
AcDbText
 10
270.0243406776
 20
262.9100982517
 30
0.0
 40
4.0
  1
MAX
 50
90.0
  7
SEACAD_arial_ttf
 11
266.0243406776
 21
262.9100982517
 31
0.0
100
AcDbText
 73
     3
  0
TEXT
  5
37F
330
374
100
AcDbEntity
  8
Default
  6
Continuous
 62
     7
 48
25.4
100
AcDbText
 10
276.0243406776
 20
262.9100982517
 30
0.0
 40
4.0
  1
MIN 15.75
 50
90.0
  7
SEACAD_arial_ttf
 11
272.0243406776
 21
262.9100982517
 31
0.0
100
AcDbText
 73
     3
  0
ENDBLK
  5
381
330
374
100
AcDbEntity
  8
0
100
AcDbBlockEnd
  0
BLOCK
  5
38C
330
382
100
AcDbEntity
  8
0
100
AcDbBlockBegin
  2
GDimGGroup23
 70
     0
 71
     0
 10
0.0
 20
0.0
 30
0.0
  3
GDimGGroup23
  1

  0
HATCH
  5
384
330
382
100
AcDbEntity
  8
Default
  6
Continuous
 62
     7
 48
25.4
100
AcDbHatch
 10
0.0
 20
0.0
 30
0.0
210
0.0
220
0.0
230
1.0
  2
SOLID
 70
     1
 71
     0
 91
        1
 92
        1
 93
        3
 72
     1
 10
92.00037338966637
 20
265.4666833434887
 11
92.667040087998
 21
261.4666831534989
 72
     1
 10
92.667040087998
 20
261.4666831534989
 11
93.33370678632964
 21
265.4666833434887
 72
     1
 10
93.33370678632964
 20
265.4666833434887
 11
92.00037338966637
 21
265.4666833434887
 97
        0
 75
     0
 76
     1
 98
        0
  0
LWPOLYLINE
  5
385
330
382
100
AcDbEntity
  8
Default
  6
Continuous
 62
     7
 48
25.4
370
    20
100
AcDbPolyline
 90
        4
 70
     1
 43
0.0
 10
92.0003733897
 20
265.4666833435
 10
92.667040088
 20
261.4666831535
 10
93.3337067863
 20
265.4666833435
 10
92.0003733897
 20
265.4666833435
  0
HATCH
  5
386
330
382
100
AcDbEntity
  8
Default
  6
Continuous
 62
     7
 48
25.4
100
AcDbHatch
 10
0.0
 20
0.0
 30
0.0
210
0.0
220
0.0
230
1.0
  2
SOLID
 70
     1
 71
     0
 91
        1
 92
        1
 93
        3
 72
     1
 10
92.00037338966637
 20
321.2916793157048
 11
93.33370678632964
 21
321.2916793157048
 72
     1
 10
93.33370678632964
 20
321.2916793157048
 11
92.667040087998
 21
325.2916795056946
 72
     1
 10
92.667040087998
 20
325.2916795056946
 11
92.00037338966637
 21
321.2916793157048
 97
        0
 75
     0
 76
     1
 98
        0
  0
LWPOLYLINE
  5
387
330
382
100
AcDbEntity
  8
Default
  6
Continuous
 62
     7
 48
25.4
370
    20
100
AcDbPolyline
 90
        4
 70
     1
 43
0.0
 10
92.0003733897
 20
321.2916793157
 10
92.667040088
 20
325.2916795057
 10
93.3337067863
 20
321.2916793157
 10
92.0003733897
 20
321.2916793157
  0
LINE
  5
388
330
382
100
AcDbEntity
  8
Default
  6
Continuous
 62
     7
 48
25.4
100
AcDbLine
 10
139.2204506777
 20
261.4666831535
 30
0.0
 11
90.667039993
 21
261.4666831535
 31
0.0
  0
LINE
  5
389
330
382
100
AcDbEntity
  8
Default
  6
Continuous
 62
     7
 48
25.4
100
AcDbLine
 10
139.2204506777
 20
325.2916831535
 30
0.0
 11
90.667039993
 21
325.2916831535
 31
0.0
  0
LINE
  5
38A
330
382
100
AcDbEntity
  8
Default
  6
Continuous
 62
     7
 48
25.4
100
AcDbLine
 10
92.667040088
 20
261.4666831535
 30
0.0
 11
92.667040088
 21
325.2916795057
 31
0.0
  0
TEXT
  5
38B
330
382
100
AcDbEntity
  8
Default
  6
Continuous
 62
     7
 48
25.4
100
AcDbText
 10
91.667040088
 20
283.2052682861
 30
0.0
 40
4.0
  1
106.375
 50
90.0
  7
SEACAD_arial_ttf
 11
87.667040088
 21
283.2052682861
 31
0.0
100
AcDbText
 73
     3
  0
ENDBLK
  5
38D
330
382
100
AcDbEntity
  8
0
100
AcDbBlockEnd
  0
BLOCK
  5
39A
330
38E
100
AcDbEntity
  8
0
100
AcDbBlockBegin
  2
GDimGGroup24
 70
     0
 71
     0
 10
0.0
 20
0.0
 30
0.0
  3
GDimGGroup24
  1

  0
HATCH
  5
390
330
38E
100
AcDbEntity
  8
Default
  6
Continuous
 62
     7
 48
25.4
100
AcDbHatch
 10
0.0
 20
0.0
 30
0.0
210
0.0
220
0.0
230
1.0
  2
SOLID
 70
     1
 71
     0
 91
        1
 92
        1
 93
        3
 72
     1
 10
93.00596029438731
 20
335.0212734923456
 11
93.00604810736088
 21
330.9660982804871
 72
     1
 10
93.00604810736088
 20
330.9660982804871
 11
94.32115700163728
 21
334.8021033121285
 72
     1
 10
94.32115700163728
 20
334.8021033121285
 11
93.00596029438731
 21
335.0212734923456
 97
        0
 75
     0
 76
     1
 98
        0
  0
LWPOLYLINE
  5
391
330
38E
100
AcDbEntity
  8
Default
  6
Continuous
 62
     7
 48
25.4
370
    20
100
AcDbPolyline
 90
        4
 70
     1
 43
0.0
 10
93.0059602944
 20
335.0212734923
 10
93.0060481074
 20
330.9660982805
 10
94.3211570016
 20
334.8021033121
 10
93.0059602944
 20
335.0212734923
  0
HATCH
  5
392
330
38E
100
AcDbEntity
  8
Default
  6
Continuous
 62
     7
 48
25.4
100
AcDbHatch
 10
0.0
 20
0.0
 30
0.0
210
0.0
220
0.0
230
1.0
  2
SOLID
 70
     1
 71
     0
 91
        1
 92
        1
 93
        3
 72
     1
 10
93.49680087596596
 20
321.323999665924
 11
92.65898601037273
 21
325.2916831534988
 72
     1
 10
92.65898601037273
 20
325.2916831534988
 11
92.1646973196934
 21
321.2667453034383
 72
     1
 10
92.1646973196934
 20
321.2667453034384
 11
93.49680087596596
 21
321.323999665924
 97
        0
 75
     0
 76
     1
 98
        0
  0
LWPOLYLINE
  5
393
330
38E
100
AcDbEntity
  8
Default
  6
Continuous
 62
     7
 48
25.4
370
    20
100
AcDbPolyline
 90
        4
 70
     1
 43
0.0
 10
93.496800876
 20
321.3239996659
 10
92.6589860104
 20
325.2916831535
 10
92.1646973197
 20
321.2667453034
 10
93.496800876
 20
321.3239996659
  0
LINE
  5
394
330
38E
100
AcDbEntity
  8
Default
  6
Continuous
 62
     7
 48
25.4
100
AcDbLine
 10
151.2204504445
 20
323.8182684513
 30
0.0
 11
91.0209554787
 21
331.2098370072
 31
0.0
  0
LINE
  5
395
330
38E
100
AcDbEntity
  8
Default
  6
Continuous
 62
     7
 48
25.4
100
AcDbLine
 10
139.2204506777
 20
325.2916831535
 30
0.0
 11
90.6589856825
 21
325.2916831535
 31
0.0
  0
ARC
  5
396
330
38E
100
AcDbEntity
  8
Default
  6
Continuous
 62
     7
 48
25.4
100
AcDbCircle
 10
139.2204506777
 20
325.2916831535
 30
0.0
 40
46.5614646673205
100
AcDbArc
 50
163.1556739625
 51
180.0000000525
  0
ARC
  5
397
330
38E
100
AcDbEntity
  8
Default
  6
Continuous
 62
     7
 48
25.4
100
AcDbCircle
 10
139.2204506777
 20
325.2916831535
 30
0.0
 40
46.56146466731775
100
AcDbArc
 50
180.0
 51
189.8443260375
  0
TEXT
  5
398
330
38E
100
AcDbEntity
  8
Default
  6
Continuous
 62
     7
 48
25.4
100
AcDbText
 10
91.022547251
 20
316.3391355909
 30
0.0
 40
4.0
  1
7°
 50
86.5
  7
SEACAD_arial_ttf
 11
87.0300080573
 21
316.5833297491
 31
0.0
100
AcDbText
 73
     3
  0
TEXT
  5
399
330
38E
100
AcDbEntity
  8
Default
  6
Continuous
 62
     7
 48
25.4
100
AcDbText
 10
91.5226144183
 20
324.515161505
 30
0.0
 40
4.0
  1
07'30"
 50
86.5
  7
SEACAD_arial_ttf
 11
87.5300752247
 21
324.7593556631
 31
0.0
100
AcDbText
 73
     3
  0
ENDBLK
  5
39B
330
38E
100
AcDbEntity
  8
0
100
AcDbBlockEnd
  0
BLOCK
  5
3A6
330
39C
100
AcDbEntity
  8
0
100
AcDbBlockBegin
  2
GDimGGroup25
 70
     0
 71
     0
 10
0.0
 20
0.0
 30
0.0
  3
GDimGGroup25
  1

  0
HATCH
  5
39E
330
39C
100
AcDbEntity
  8
Default
  6
Continuous
 62
     7
 48
25.4
100
AcDbHatch
 10
0.0
 20
0.0
 30
0.0
210
0.0
220
0.0
230
1.0
  2
SOLID
 70
     1
 71
     0
 91
        1
 92
        1
 93
        3
 72
     1
 10
502.9215653301148
 20
367.3905083298283
 11
506.2667339582276
 21
365.0982838957747
 72
     1
 10
506.2667339582276
 20
365.0982838957747
 11
503.8458093967328
 21
368.3515238614296
 72
     1
 10
503.8458093967328
 20
368.3515238614296
 11
502.9215653301148
 21
367.3905083298283
 97
        0
 75
     0
 76
     1
 98
        0
  0
LWPOLYLINE
  5
39F
330
39C
100
AcDbEntity
  8
Default
  6
Continuous
 62
     7
 48
25.4
370
    20
100
AcDbPolyline
 90
        4
 70
     1
 43
0.0
 10
502.9215653301
 20
367.3905083298
 10
506.2667339582
 20
365.0982838958
 10
503.8458093967
 20
368.3515238614
 10
502.9215653301
 20
367.3905083298
  0
HATCH
  5
3A0
330
39C
100
AcDbEntity
  8
Default
  6
Continuous
 62
     7
 48
25.4
100
AcDbHatch
 10
0.0
 20
0.0
 30
0.0
210
0.0
220
0.0
230
1.0
  2
SOLID
 70
     1
 71
     0
 91
        1
 92
        1
 93
        3
 72
     1
 10
437.763564693712
 20
395.7236849999519
 11
433.751324491314
 21
395.1351490496107
 72
     1
 10
433.751324491314
 20
395.1351490496107
 11
437.7375633693687
 21
394.3906051532098
 72
     1
 10
437.7375633693687
 20
394.3906051532098
 11
437.7635646937119
 21
395.7236849999519
 97
        0
 75
     0
 76
     1
 98
        0
  0
LWPOLYLINE
  5
3A1
330
39C
100
AcDbEntity
  8
Default
  6
Continuous
 62
     7
 48
25.4
370
    20
100
AcDbPolyline
 90
        4
 70
     1
 43
0.0
 10
437.7635646937
 20
395.723685
 10
433.7513244913
 20
395.1351490496
 10
437.7375633694
 20
394.3906051532
 10
437.7635646937
 20
395.723685
  0
LINE
  5
3A2
330
39C
100
AcDbEntity
  8
Default
  6
Continuous
 62
     7
 48
25.4
100
AcDbLine
 10
470.1107570327
 20
328.9423069702
 30
0.0
 11
507.6809451182
 21
366.5124950558
 31
0.0
  0
LINE
  5
3A3
330
39C
100
AcDbEntity
  8
Default
  6
Continuous
 62
     7
 48
25.4
100
AcDbLine
 10
433.7513267327
 20
292.5828766702
 30
0.0
 11
433.7513267327
 21
397.1351456521
 31
0.0
  0
ARC
  5
3A4
330
39C
100
AcDbEntity
  8
Default
  6
Continuous
 62
     7
 48
25.4
100
AcDbCircle
 10
433.7513267327
 20
292.5828766702
 30
0.0
 40
102.5522723793983
100
AcDbArc
 50
45.0
 51
90.0000012522
  0
TEXT
  5
3A5
330
39C
100
AcDbEntity
  8
Default
  6
Continuous
 62
     7
 48
25.4
100
AcDbText
 10
469.442535574
 20
389.8832658566
 30
0.0
 40
4.0
  1
45°
 50
337.5
  7
SEACAD_arial_ttf
 11
470.9732693035
 21
393.5787839867
 31
0.0
100
AcDbText
 73
     3
  0
ENDBLK
  5
3A7
330
39C
100
AcDbEntity
  8
0
100
AcDbBlockEnd
  0
BLOCK
  5
3B2
330
3A8
100
AcDbEntity
  8
0
100
AcDbBlockBegin
  2
GDimGGroup26
 70
     0
 71
     0
 10
0.0
 20
0.0
 30
0.0
  3
GDimGGroup26
  1

  0
HATCH
  5
3AA
330
3A8
100
AcDbEntity
  8
Default
  6
Continuous
 62
     7
 48
25.4
100
AcDbHatch
 10
0.0
 20
0.0
 30
0.0
210
0.0
220
0.0
230
1.0
  2
SOLID
 70
     1
 71
     0
 91
        1
 92
        1
 93
        3
 72
     1
 10
531.0583263736954
 20
322.7830667856641
 11
532.8092151685572
 21
319.1253578805418
 72
     1
 10
532.8092151685572
 20
319.1253578805418
 11
532.3392529804845
 21
323.1532086161532
 72
     1
 10
532.3392529804845
 20
323.1532086161532
 11
531.0583263736954
 21
322.7830667856641
 97
        0
 75
     0
 76
     1
 98
        0
  0
LWPOLYLINE
  5
3AB
330
3A8
100
AcDbEntity
  8
Default
  6
Continuous
 62
     7
 48
25.4
370
    20
100
AcDbPolyline
 90
        4
 70
     1
 43
0.0
 10
531.0583263737
 20
322.7830667857
 10
532.8092151686
 20
319.1253578805
 10
532.3392529805
 20
323.1532086162
 10
531.0583263737
 20
322.7830667857
  0
HATCH
  5
3AC
330
3A8
100
AcDbEntity
  8
Default
  6
Continuous
 62
     7
 48
25.4
100
AcDbHatch
 10
0.0
 20
0.0
 30
0.0
210
0.0
220
0.0
230
1.0
  2
SOLID
 70
     1
 71
     0
 91
        1
 92
        1
 93
        3
 72
     1
 10
509.5199729003309
 20
362.6773604352507
 11
506.2667329016446
 21
365.0982849523579
 72
     1
 10
506.2667329016446
 20
365.0982849523579
 11
508.5589573813402
 21
361.7531163555204
 72
     1
 10
508.5589573813402
 20
361.7531163555204
 11
509.5199729003309
 21
362.6773604352507
 97
        0
 75
     0
 76
     1
 98
        0
  0
LWPOLYLINE
  5
3AD
330
3A8
100
AcDbEntity
  8
Default
  6
Continuous
 62
     7
 48
25.4
370
    20
100
AcDbPolyline
 90
        4
 70
     1
 43
0.0
 10
509.5199729003
 20
362.6773604353
 10
506.2667329016
 20
365.0982849524
 10
508.5589573813
 20
361.7531163555
 10
509.5199729003
 20
362.6773604353
  0
LINE
  5
3AE
330
3A8
100
AcDbEntity
  8
Default
  6
Continuous
 62
     7
 48
25.4
100
AcDbLine
 10
483.4192321896
 20
305.8913518271
 30
0.0
 11
534.7410635394
 21
319.6429950914
 31
0.0
  0
LINE
  5
3AF
330
3A8
100
AcDbEntity
  8
Default
  6
Continuous
 62
     7
 48
25.4
100
AcDbLine
 10
470.1107570327
 20
328.9423069702
 30
0.0
 11
507.6809451182
 21
366.5124950558
 31
0.0
  0
ARC
  5
3B0
330
3A8
100
AcDbEntity
  8
Default
  6
Continuous
 62
     7
 48
25.4
100
AcDbCircle
 10
433.7513267327
 20
292.5828766702
 30
0.0
 40
102.5522723793996
100
AcDbArc
 50
15.0
 51
45.0000008348
  0
TEXT
  5
3B1
330
3A8
100
AcDbEntity
  8
Default
  6
Continuous
 62
     7
 48
25.4
100
AcDbText
 10
521.2997904502
 20
348.0490341456
 30
0.0
 40
4.0
  1
30°
 50
300.0
  7
SEACAD_arial_ttf
 11
524.7638920654
 21
350.0490341456
 31
0.0
100
AcDbText
 73
     3
  0
ENDBLK
  5
3B3
330
3A8
100
AcDbEntity
  8
0
100
AcDbBlockEnd
  0
BLOCK
  5
3BE
330
3B4
100
AcDbEntity
  8
0
100
AcDbBlockBegin
  2
GDimGGroup27
 70
     0
 71
     0
 10
0.0
 20
0.0
 30
0.0
  3
GDimGGroup27
  1

  0
HATCH
  5
3B6
330
3B4
100
AcDbEntity
  8
Default
  6
Continuous
 62
     7
 48
25.4
100
AcDbHatch
 10
0.0
 20
0.0
 30
0.0
210
0.0
220
0.0
230
1.0
  2
SOLID
 70
     1
 71
     0
 91
        1
 92
        1
 93
        3
 72
     1
 10
535.6825301652158
 20
296.5691329800871
 11
536.4269807267485
 21
292.5828766702123
 72
     1
 10
536.4269807267485
 20
292.5828766702123
 11
537.0156106203932
 21
296.5951030914018
 72
     1
 10
537.0156106203933
 20
296.5951030914018
 11
535.6825301652159
 21
296.5691329800871
 97
        0
 75
     0
 76
     1
 98
        0
  0
LWPOLYLINE
  5
3B7
330
3B4
100
AcDbEntity
  8
Default
  6
Continuous
 62
     7
 48
25.4
370
    20
100
AcDbPolyline
 90
        4
 70
     1
 43
0.0
 10
535.6825301652
 20
296.5691329801
 10
536.4269807267
 20
292.5828766702
 10
537.0156106204
 20
296.5951030914
 10
535.6825301652
 20
296.5691329801
  0
HATCH
  5
3B8
330
3B4
100
AcDbEntity
  8
Default
  6
Continuous
 62
     7
 48
25.4
100
AcDbHatch
 10
0.0
 20
0.0
 30
0.0
210
0.0
220
0.0
230
1.0
  2
SOLID
 70
     1
 71
     0
 91
        1
 92
        1
 93
        3
 72
     1
 10
534.5354059142138
 20
315.434127630832
 11
532.9283924630699
 21
319.1572921147657
 72
     1
 10
532.9283924630699
 20
319.1572921147657
 11
533.24102751666
 21
315.1141862133763
 72
     1
 10
533.2410275166599
 20
315.1141862133764
 11
534.5354059142137
 21
315.434127630832
 97
        0
 75
     0
 76
     1
 98
        0
  0
LWPOLYLINE
  5
3B9
330
3B4
100
AcDbEntity
  8
Default
  6
Continuous
 62
     7
 48
25.4
370
    20
100
AcDbPolyline
 90
        4
 70
     1
 43
0.0
 10
534.5354059142
 20
315.4341276308
 10
532.9283924631
 20
319.1572921148
 10
533.2410275167
 20
315.1141862134
 10
534.5354059142
 20
315.4341276308
  0
LINE
  5
3BA
330
3B4
100
AcDbEntity
  8
Default
  6
Continuous
 62
     7
 48
25.4
100
AcDbLine
 10
433.7513267327
 20
292.5828766702
 30
0.0
 11
538.4269773293
 21
292.5828766702
 31
0.0
  0
LINE
  5
3BB
330
3B4
100
AcDbEntity
  8
Default
  6
Continuous
 62
     7
 48
25.4
100
AcDbLine
 10
483.4192321896
 20
305.8913518271
 30
0.0
 11
534.8602410275
 21
319.6749286031
 31
0.0
  0
ARC
  5
3BC
330
3B4
100
AcDbEntity
  8
Default
  6
Continuous
 62
     7
 48
25.4
100
AcDbCircle
 10
433.7513267327
 20
292.5828766702
 30
0.0
 40
102.6756539940777
100
AcDbArc
 50
0.0
 51
15.0000004174
  0
TEXT
  5
3BD
330
3B4
100
AcDbEntity
  8
Default
  6
Continuous
 62
     7
 48
25.4
100
AcDbText
 10
535.9838660548
 20
310.3396822474
 30
0.0
 40
4.0
  1
15°
 50
277.5
  7
SEACAD_arial_ttf
 11
539.9496455003
 21
310.8617870163
 31
0.0
100
AcDbText
 73
     3
  0
ENDBLK
  5
3BF
330
3B4
100
AcDbEntity
  8
0
100
AcDbBlockEnd
  0
BLOCK
  5
3CA
330
3C0
100
AcDbEntity
  8
0
100
AcDbBlockBegin
  2
GDimGGroup28
 70
     0
 71
     0
 10
0.0
 20
0.0
 30
0.0
  3
GDimGGroup28
  1

  0
HATCH
  5
3C2
330
3C0
100
AcDbEntity
  8
Default
  6
Continuous
 62
     7
 48
25.4
100
AcDbHatch
 10
0.0
 20
0.0
 30
0.0
210
0.0
220
0.0
230
1.0
  2
SOLID
 70
     1
 71
     0
 91
        1
 92
        1
 93
        3
 72
     1
 10
524.1060913269262
 20
245.0194775981451
 11
522.7576038289479
 21
241.195078629107
 72
     1
 10
522.7576038289479
 20
241.195078629107
 11
525.2735457223992
 21
244.3754060329068
 72
     1
 10
525.2735457223992
 20
244.3754060329068
 11
524.1060913269262
 21
245.0194775981451
 97
        0
 75
     0
 76
     1
 98
        0
  0
LWPOLYLINE
  5
3C3
330
3C0
100
AcDbEntity
  8
Default
  6
Continuous
 62
     7
 48
25.4
370
    20
100
AcDbPolyline
 90
        4
 70
     1
 43
0.0
 10
524.1060913269
 20
245.0194775981
 10
522.7576038289
 20
241.1950786291
 10
525.2735457224
 20
244.3754060329
 10
524.1060913269
 20
245.0194775981
  0
HATCH
  5
3C4
330
3C0
100
AcDbEntity
  8
Default
  6
Continuous
 62
     7
 48
25.4
100
AcDbHatch
 10
0.0
 20
0.0
 30
0.0
210
0.0
220
0.0
230
1.0
  2
SOLID
 70
     1
 71
     0
 91
        1
 92
        1
 93
        3
 72
     1
 10
537.1156287619015
 20
288.5706629049658
 11
536.5269228148757
 21
292.5828781677003
 72
     1
 10
536.5269228148757
 20
292.5828781677004
 11
535.7825478146889
 21
288.5966077471594
 72
     1
 10
535.7825478146889
 20
288.5966077471594
 11
537.1156287619014
 21
288.5706629049658
 97
        0
 75
     0
 76
     1
 98
        0
  0
LWPOLYLINE
  5
3C5
330
3C0
100
AcDbEntity
  8
Default
  6
Continuous
 62
     7
 48
25.4
370
    20
100
AcDbPolyline
 90
        4
 70
     1
 43
0.0
 10
537.1156287619
 20
288.570662905
 10
536.5269228149
 20
292.5828781677
 10
535.7825478147
 20
288.5966077472
 10
537.1156287619
 20
288.570662905
  0
LINE
  5
3C6
330
3C0
100
AcDbEntity
  8
Default
  6
Continuous
 62
     7
 48
25.4
100
AcDbLine
 10
467.9930067907
 20
272.8134334712
 30
0.0
 11
524.4896516942
 21
240.1950803278
 31
0.0
  0
LINE
  5
3C7
330
3C0
100
AcDbEntity
  8
Default
  6
Continuous
 62
     7
 48
25.4
100
AcDbLine
 10
433.7513267327
 20
292.5828766702
 30
0.0
 11
538.5269194174
 21
292.5828766702
 31
0.0
  0
ARC
  5
3C8
330
3C0
100
AcDbEntity
  8
Default
  6
Continuous
 62
     7
 48
25.4
100
AcDbCircle
 10
433.7513267327
 20
292.5828766702
 30
0.0
 40
102.7755960822094
100
AcDbArc
 50
330.0
 51
0.0000008348
  0
TEXT
  5
3C9
330
3C0
100
AcDbEntity
  8
Default
  6
Continuous
 62
     7
 48
25.4
100
AcDbText
 10
530.9562092823
 20
262.125730122
 30
0.0
 40
4.0
  1
30°
 50
75.0
  7
SEACAD_arial_ttf
 11
527.0925059771
 21
263.1610063024
 31
0.0
100
AcDbText
 73
     3
  0
ENDBLK
  5
3CB
330
3C0
100
AcDbEntity
  8
0
100
AcDbBlockEnd
  0
BLOCK
  5
3D6
330
3CC
100
AcDbEntity
  8
0
100
AcDbBlockBegin
  2
GDimGGroup29
 70
     0
 71
     0
 10
0.0
 20
0.0
 30
0.0
  3
GDimGGroup29
  1

  0
HATCH
  5
3CE
330
3CC
100
AcDbEntity
  8
Default
  6
Continuous
 62
     7
 48
25.4
100
AcDbHatch
 10
0.0
 20
0.0
 30
0.0
210
0.0
220
0.0
230
1.0
  2
SOLID
 70
     1
 71
     0
 91
        1
 92
        1
 93
        3
 72
     1
 10
422.751326922655
 20
401.5628742304701
 11
418.7513267326652
 21
400.8962075321384
 72
     1
 10
418.7513267326652
 20
400.8962075321384
 11
422.751326922655
 21
400.2295408338068
 72
     1
 10
422.751326922655
 20
400.2295408338068
 11
422.751326922655
 21
401.5628742304701
 97
        0
 75
     0
 76
     1
 98
        0
  0
LWPOLYLINE
  5
3CF
330
3CC
100
AcDbEntity
  8
Default
  6
Continuous
 62
     7
 48
25.4
370
    20
100
AcDbPolyline
 90
        4
 70
     1
 43
0.0
 10
422.7513269227
 20
401.5628742305
 10
418.7513267327
 20
400.8962075321
 10
422.7513269227
 20
400.2295408338
 10
422.7513269227
 20
401.5628742305
  0
HATCH
  5
3D0
330
3CC
100
AcDbEntity
  8
Default
  6
Continuous
 62
     7
 48
25.4
100
AcDbHatch
 10
0.0
 20
0.0
 30
0.0
210
0.0
220
0.0
230
1.0
  2
SOLID
 70
     1
 71
     0
 91
        1
 92
        1
 93
        3
 72
     1
 10
444.7513258721231
 20
401.5628742304701
 11
444.7513258721231
 21
400.2295408338068
 72
     1
 10
444.7513258721231
 20
400.2295408338068
 11
448.7513260621129
 21
400.8962075321384
 72
     1
 10
448.7513260621129
 20
400.8962075321384
 11
444.7513258721231
 21
401.5628742304701
 97
        0
 75
     0
 76
     1
 98
        0
  0
LWPOLYLINE
  5
3D1
330
3CC
100
AcDbEntity
  8
Default
  6
Continuous
 62
     7
 48
25.4
370
    20
100
AcDbPolyline
 90
        4
 70
     1
 43
0.0
 10
444.7513258721
 20
401.5628742305
 10
448.7513260621
 20
400.8962075321
 10
444.7513258721
 20
400.2295408338
 10
444.7513258721
 20
401.5628742305
  0
LINE
  5
3D2
330
3CC
100
AcDbEntity
  8
Default
  6
Continuous
 62
     7
 48
25.4
100
AcDbLine
 10
418.7513267327
 20
384.3828766702
 30
0.0
 11
418.7513267327
 21
402.8962076271
 31
0.0
  0
LINE
  5
3D3
330
3CC
100
AcDbEntity
  8
Default
  6
Continuous
 62
     7
 48
25.4
100
AcDbLine
 10
448.7513267327
 20
384.3828766702
 30
0.0
 11
448.7513267327
 21
402.8962076271
 31
0.0
  0
LINE
  5
3D4
330
3CC
100
AcDbEntity
  8
Default
  6
Continuous
 62
     7
 48
25.4
100
AcDbLine
 10
418.7513267327
 20
400.8962075321
 30
0.0
 11
448.7513260621
 21
400.8962075321
 31
0.0
  0
TEXT
  5
3D5
330
3CC
100
AcDbEntity
  8
Default
  6
Continuous
 62
     7
 48
25.4
100
AcDbText
 10
430.6208916148
 20
401.8962075321
 30
0.0
 40
4.0
  1
50
  7
SEACAD_arial_ttf
 11
430.6208916148
 21
405.8962075321
 31
0.0
100
AcDbText
 73
     3
  0
ENDBLK
  5
3D7
330
3CC
100
AcDbEntity
  8
0
100
AcDbBlockEnd
  0
ENDSEC
  0
SECTION
  2
ENTITIES
  0
INSERT
  5
2C
330
1F
100
AcDbEntity
  8
Default
100
AcDbBlockReference
  2
SEANNOT_GROUP
 10
0.0
 20
0.0
 30
0.0
  0
INSERT
  5
36
330
1F
100
AcDbEntity
  8
Default
100
AcDbBlockReference
  2
SEANNOT_GROUP1
 10
0.0
 20
0.0
 30
0.0
  0
INSERT
  5
40
330
1F
100
AcDbEntity
  8
Default
100
AcDbBlockReference
  2
SEANNOT_GROUP2
 10
0.0
 20
0.0
 30
0.0
  0
INSERT
  5
49
330
1F
100
AcDbEntity
  8
Default
100
AcDbBlockReference
  2
SEANNOT_GROUP3
 10
0.0
 20
0.0
 30
0.0
  0
INSERT
  5
52
330
1F
100
AcDbEntity
  8
Default
100
AcDbBlockReference
  2
SEANNOT_GROUP4
 10
0.0
 20
0.0
 30
0.0
  0
INSERT
  5
5D
330
1F
100
AcDbEntity
  8
Default
100
AcDbBlockReference
  2
SEANNOT_GROUP5
 10
0.0
 20
0.0
 30
0.0
  0
INSERT
  5
67
330
1F
100
AcDbEntity
  8
Default
100
AcDbBlockReference
  2
SE
 10
0.0
 20
0.0
 30
0.0
  0
INSERT
  5
147
330
1F
100
AcDbEntity
  8
Default
100
AcDbBlockReference
  2
SE1
 10
0.0
 20
0.0
 30
0.0
  0
INSERT
  5
1D0
330
1F
100
AcDbEntity
  8
Default
100
AcDbBlockReference
  2
SE2
 10
0.0
 20
0.0
 30
0.0
  0
INSERT
  5
269
330
1F
100
AcDbEntity
  8
Default
100
AcDbBlockReference
  2
GDimGGroup
 10
0.0
 20
0.0
 30
0.0
  0
INSERT
  5
276
330
1F
100
AcDbEntity
  8
Default
100
AcDbBlockReference
  2
GDimGGroup1
 10
0.0
 20
0.0
 30
0.0
  0
INSERT
  5
283
330
1F
100
AcDbEntity
  8
Default
100
AcDbBlockReference
  2
GDimGGroup2
 10
0.0
 20
0.0
 30
0.0
  0
INSERT
  5
28F
330
1F
100
AcDbEntity
  8
Default
100
AcDbBlockReference
  2
GDimGGroup3
 10
0.0
 20
0.0
 30
0.0
  0
INSERT
  5
29B
330
1F
100
AcDbEntity
  8
Default
100
AcDbBlockReference
  2
GDimGGroup4
 10
0.0
 20
0.0
 30
0.0
  0
INSERT
  5
2A7
330
1F
100
AcDbEntity
  8
Default
100
AcDbBlockReference
  2
GDimGGroup5
 10
0.0
 20
0.0
 30
0.0
  0
INSERT
  5
2B3
330
1F
100
AcDbEntity
  8
Default
100
AcDbBlockReference
  2
GDimGGroup6
 10
0.0
 20
0.0
 30
0.0
  0
INSERT
  5
2BE
330
1F
100
AcDbEntity
  8
Default
100
AcDbBlockReference
  2
GDimGGroup7
 10
0.0
 20
0.0
 30
0.0
  0
INSERT
  5
2CA
330
1F
100
AcDbEntity
  8
Default
100
AcDbBlockReference
  2
GDimGGroup8
 10
0.0
 20
0.0
 30
0.0
  0
INSERT
  5
2D6
330
1F
100
AcDbEntity
  8
Default
100
AcDbBlockReference
  2
GDimGGroup9
 10
0.0
 20
0.0
 30
0.0
  0
INSERT
  5
2E1
330
1F
100
AcDbEntity
  8
Default
100
AcDbBlockReference
  2
GDimGGroup10
 10
0.0
 20
0.0
 30
0.0
  0
INSERT
  5
2EE
330
1F
100
AcDbEntity
  8
Default
100
AcDbBlockReference
  2
GDimGGroup11
 10
0.0
 20
0.0
 30
0.0
  0
INSERT
  5
2F9
330
1F
100
AcDbEntity
  8
Default
100
AcDbBlockReference
  2
GDimGGroup12
 10
0.0
 20
0.0
 30
0.0
  0
INSERT
  5
307
330
1F
100
AcDbEntity
  8
Default
100
AcDbBlockReference
  2
GDimGGroup13
 10
0.0
 20
0.0
 30
0.0
  0
INSERT
  5
314
330
1F
100
AcDbEntity
  8
Default
100
AcDbBlockReference
  2
GDimGGroup14
 10
0.0
 20
0.0
 30
0.0
  0
INSERT
  5
320
330
1F
100
AcDbEntity
  8
Default
100
AcDbBlockReference
  2
GDimGGroup15
 10
0.0
 20
0.0
 30
0.0
  0
INSERT
  5
32B
330
1F
100
AcDbEntity
  8
Default
100
AcDbBlockReference
  2
GDimGGroup16
 10
0.0
 20
0.0
 30
0.0
  0
INSERT
  5
337
330
1F
100
AcDbEntity
  8
Default
100
AcDbBlockReference
  2
GDimGGroup17
 10
0.0
 20
0.0
 30
0.0
  0
INSERT
  5
343
330
1F
100
AcDbEntity
  8
Default
100
AcDbBlockReference
  2
GDimGGroup18
 10
0.0
 20
0.0
 30
0.0
  0
INSERT
  5
34F
330
1F
100
AcDbEntity
  8
Default
100
AcDbBlockReference
  2
GDimGGroup19
 10
0.0
 20
0.0
 30
0.0
  0
INSERT
  5
35B
330
1F
100
AcDbEntity
  8
Default
100
AcDbBlockReference
  2
GDimGGroup20
 10
0.0
 20
0.0
 30
0.0
  0
INSERT
  5
369
330
1F
100
AcDbEntity
  8
Default
100
AcDbBlockReference
  2
GDimGGroup21
 10
0.0
 20
0.0
 30
0.0
  0
INSERT
  5
375
330
1F
100
AcDbEntity
  8
Default
100
AcDbBlockReference
  2
GDimGGroup22
 10
0.0
 20
0.0
 30
0.0
  0
INSERT
  5
383
330
1F
100
AcDbEntity
  8
Default
100
AcDbBlockReference
  2
GDimGGroup23
 10
0.0
 20
0.0
 30
0.0
  0
INSERT
  5
38F
330
1F
100
AcDbEntity
  8
Default
100
AcDbBlockReference
  2
GDimGGroup24
 10
0.0
 20
0.0
 30
0.0
  0
INSERT
  5
39D
330
1F
100
AcDbEntity
  8
Default
100
AcDbBlockReference
  2
GDimGGroup25
 10
0.0
 20
0.0
 30
0.0
  0
INSERT
  5
3A9
330
1F
100
AcDbEntity
  8
Default
100
AcDbBlockReference
  2
GDimGGroup26
 10
0.0
 20
0.0
 30
0.0
  0
INSERT
  5
3B5
330
1F
100
AcDbEntity
  8
Default
100
AcDbBlockReference
  2
GDimGGroup27
 10
0.0
 20
0.0
 30
0.0
  0
INSERT
  5
3C1
330
1F
100
AcDbEntity
  8
Default
100
AcDbBlockReference
  2
GDimGGroup28
 10
0.0
 20
0.0
 30
0.0
  0
INSERT
  5
3CD
330
1F
100
AcDbEntity
  8
Default
100
AcDbBlockReference
  2
GDimGGroup29
 10
0.0
 20
0.0
 30
0.0
  0
LINE
  5
3D9
330
1F
100
AcDbEntity
  8
BORDER
  6
Continuous
 62
     7
 48
25.4
100
AcDbLine
 10
6.2292620399
 20
410.0
 30
0.0
 11
586.2292620399
 21
410.0
 31
0.0
  0
LINE
  5
3DA
330
1F
100
AcDbEntity
  8
BORDER
  6
Continuous
 62
     7
 48
25.4
100
AcDbLine
 10
6.2292620399
 20
410.0
 30
0.0
 11
6.2292620399
 21
10.0
 31
0.0
  0
LINE
  5
3DB
330
1F
100
AcDbEntity
  8
BORDER
  6
Continuous
 62
     7
 48
25.4
100
AcDbLine
 10
6.2292620399
 20
10.0
 30
0.0
 11
586.2292620399
 21
10.0
 31
0.0
  0
LINE
  5
3DC
330
1F
100
AcDbEntity
  8
BORDER
  6
Continuous
 62
     7
 48
25.4
100
AcDbLine
 10
586.2292620399
 20
10.0
 30
0.0
 11
586.2292620399
 21
410.0
 31
0.0
  0
LINE
  5
3DD
330
1F
100
AcDbEntity
  8
Default
  6
Continuous
 62
     7
 48
25.4
100
AcDbLine
 10
3.7292620399
 20
412.5
 30
0.0
 11
588.7292620399
 21
412.5
 31
0.0
  0
LINE
  5
3DE
330
1F
100
AcDbEntity
  8
Default
  6
Continuous
 62
     7
 48
25.4
100
AcDbLine
 10
588.7292620399
 20
412.5
 30
0.0
 11
588.7292620399
 21
7.5
 31
0.0
  0
LINE
  5
3DF
330
1F
100
AcDbEntity
  8
Default
  6
Continuous
 62
     7
 48
25.4
100
AcDbLine
 10
588.7292620399
 20
7.5
 30
0.0
 11
3.7292620399
 21
7.5
 31
0.0
  0
LINE
  5
3E0
330
1F
100
AcDbEntity
  8
Default
  6
Continuous
 62
     7
 48
25.4
100
AcDbLine
 10
3.7292620399
 20
7.5
 30
0.0
 11
3.7292620399
 21
412.5
 31
0.0
  0
TEXT
  5
3E1
330
1F
100
AcDbEntity
  8
Default
  6
Continuous
 62
     7
 48
25.4
100
AcDbText
 10
473.5242219525
 20
28.1561611714
 30
0.0
 40
5.0
  1
TITLE :
  7
SEACAD_arial_ttf
 11
473.5242219525
 21
33.1561611714
 31
0.0
100
AcDbText
 73
     3
  0
TEXT
  5
3E2
330
1F
100
AcDbEntity
  8
Default
  6
Continuous
 62
     7
 48
25.4
100
AcDbText
 10
473.4498030642
 20
40.2710242694
 30
0.0
 40
5.0
  1
KITAGAWA EUROPE LIMITED
  7
SEACAD_arial_ttf
 11
473.4498030642
 21
45.2710242694
 31
0.0
100
AcDbText
 73
     3
  0
TEXT
  5
3E3
330
1F
100
AcDbEntity
  8
Default
  6
Continuous
 62
     7
 48
25.4
100
AcDbText
 10
474.0233693351
 20
14.6180387033
 30
0.0
 40
5.0
  1
www.kitagawaeurope.com
  7
SEACAD_arial_ttf
 11
474.0233693351
 21
19.6180387033
 31
0.0
100
AcDbText
 73
     3
  0
TEXT
  5
3E4
330
1F
100
AcDbEntity
  8
Default
  6
Continuous
 62
     7
 48
25.4
100
AcDbText
 10
497.8463064412
 20
27.8559210467
 30
0.0
 40
5.0
  1
B212A6 POWER CHUCK
  7
SEACAD_arial_ttf
 11
497.8463064412
 21
32.8559210467
 31
0.0
100
AcDbText
 73
     3
  0
LINE
  5
3E5
330
1F
100
AcDbEntity
  8
Default
  6
Continuous
 62
     7
 48
25.4
100
AcDbLine
 10
471.5030858285
 20
50.0
 30
0.0
 11
586.2292620399
 21
50.0
 31
0.0
  0
LINE
  5
3E6
330
1F
100
AcDbEntity
  8
Default
  6
Continuous
 62
     7
 48
25.4
100
AcDbLine
 10
471.5030858285
 20
36.7
 30
0.0
 11
586.2292620399
 21
36.7
 31
0.0
  0
LINE
  5
3E7
330
1F
100
AcDbEntity
  8
Default
  6
Continuous
 62
     7
 48
25.4
100
AcDbLine
 10
586.2292620399
 20
23.4
 30
0.0
 11
471.5030858285
 21
23.4
 31
0.0
  0
LINE
  5
3E8
330
1F
100
AcDbEntity
  8
Default
  6
Continuous
 62
     7
 48
25.4
100
AcDbLine
 10
471.5030858285
 20
50.0
 30
0.0
 11
471.5030858285
 21
10.0
 31
0.0
  0
ENDSEC
  0
SECTION
  2
OBJECTS
  0
DICTIONARY
  5
C
330
0
100
AcDbDictionary
281
     1
  3
ACAD_GROUP
350
D
  3
ACAD_LAYOUT
350
1A
  3
ACAD_MLINESTYLE
350
17
  3
ACAD_PLOTSETTINGS
350
19
  3
ACAD_PLOTSTYLENAME
350
E
  0
DICTIONARY
  5
D
102
{ACAD_REACTORS
330
C
102
}
330
C
100
AcDbDictionary
281
     1
  0
DICTIONARY
  5
1A
102
{ACAD_REACTORS
330
C
102
}
330
C
100
AcDbDictionary
281
     1
  3
Layout1
350
1E
  3
Model
350
22
  0
DICTIONARY
  5
17
102
{ACAD_REACTORS
330
C
102
}
330
C
100
AcDbDictionary
281
     1
  3
Standard
350
18
  0
DICTIONARY
  5
19
102
{ACAD_REACTORS
330
C
102
}
330
C
100
AcDbDictionary
281
     1
  0
ACDBDICTIONARYWDFLT
  5
E
102
{ACAD_REACTORS
330
C
102
}
330
C
100
AcDbDictionary
281
     1
  3
Normal
350
F
100
AcDbDictionaryWithDefault
340
F
  0
LAYOUT
  5
1E
102
{ACAD_REACTORS
330
1A
102
}
330
1A
100
AcDbPlotSettings
  1

  2

  4

  6

 40
0.0
 41
0.0
 42
0.0
 43
0.0
 44
0.0
 45
0.0
 46
0.0
 47
0.0
 48
0.0
 49
0.0
140
0.0
141
0.0
142
1.0
143
1.0
 70
   688
 72
     0
 73
     0
 74
     5
  7

 75
    16
147
1.0
148
0.0
149
0.0
100
AcDbLayout
  1
Layout1
 70
     1
 71
     1
 10
0.0
 20
0.0
 11
594.0
 21
420.0
 12
0.0
 22
0.0
 32
0.0
 14
0.0
 24
0.0
 34
0.0
 15
594.0
 25
420.0
 35
0.0
146
0.0
 13
0.0
 23
0.0
 33
0.0
 16
1.0
 26
0.0
 36
0.0
 17
0.0
 27
1.0
 37
0.0
 76
     0
330
1B
  0
LAYOUT
  5
22
102
{ACAD_REACTORS
330
1A
102
}
330
1A
100
AcDbPlotSettings
  1

  2

  4

  6

 40
0.0
 41
0.0
 42
0.0
 43
0.0
 44
0.0
 45
0.0
 46
0.0
 47
0.0
 48
0.0
 49
0.0
140
0.0
141
0.0
142
1.0
143
1.0
 70
  1712
 72
     0
 73
     0
 74
     0
  7

 75
     0
147
1.0
148
0.0
149
0.0
100
AcDbLayout
  1
Model
 70
     1
 71
     0
 10
0.0
 20
0.0
 11
594.0
 21
420.0
 12
0.0
 22
0.0
 32
0.0
 14
0.0
 24
0.0
 34
0.0
 15
594.0
 25
420.0
 35
0.0
146
0.0
 13
0.0
 23
0.0
 33
0.0
 16
1.0
 26
0.0
 36
0.0
 17
0.0
 27
1.0
 37
0.0
 76
     0
330
1F
  0
MLINESTYLE
  5
18
102
{ACAD_REACTORS
330
17
102
}
330
17
100
AcDbMlineStyle
  2
Standard
 70
     0
  3

 62
   256
 51
90.0
 52
90.0
 71
     2
 49
0.5
 62
   256
  6
BYLAYER
 49
-0.5
 62
   256
  6
BYLAYER
  0
ACDBPLACEHOLDER
  5
F
102
{ACAD_REACTORS
330
E
102
}
330
E
  0
ENDSEC
  0
EOF
